  0
SECTION
  2
HEADER
  9
$ACADVER
  1
AC1015
  9
$ACADMAINTVER
 70
     6
  9
$DWGCODEPAGE
  3
ANSI_1252
  9
$INSBASE
 10
0.0
 20
0.0
 30
0.0
  9
$EXTMIN
 10
112.1032836872428
 20
-13.42212187654319
 30
0.0
  9
$EXTMAX
 10
236.4032836872439
 20
58.37787812345857
 30
0.0
  9
$LIMMIN
 10
0.0
 20
0.0
  9
$LIMMAX
 10
0.0
 20
0.0
  9
$ORTHOMODE
 70
     0
  9
$REGENMODE
 70
     1
  9
$FILLMODE
 70
     1
  9
$QTEXTMODE
 70
     0
  9
$MIRRTEXT
 70
     1
  9
$LTSCALE
 40
1.0
  9
$ATTMODE
 70
     1
  9
$TEXTSIZE
 40
0.2
  9
$TRACEWID
 40
0.05
  9
$TEXTSTYLE
  7
STANDARD
  9
$CLAYER
  8
0
  9
$CELTYPE
  6
ByBlock
  9
$CECOLOR
 62
   256
  9
$CELTSCALE
 40
1.0
  9
$DISPSILH
 70
     0
  9
$DIMSCALE
 40
1.0
  9
$DIMASZ
 40
0.18
  9
$DIMEXO
 40
0.0625
  9
$DIMDLI
 40
0.38
  9
$DIMRND
 40
0.0
  9
$DIMDLE
 40
0.0
  9
$DIMEXE
 40
0.18
  9
$DIMTP
 40
0.0
  9
$DIMTM
 40
0.0
  9
$DIMTXT
 40
0.18
  9
$DIMCEN
 40
0.09
  9
$DIMTSZ
 40
0.0
  9
$DIMTOL
 70
     0
  9
$DIMLIM
 70
     0
  9
$DIMTIH
 70
     1
  9
$DIMTOH
 70
     1
  9
$DIMSE1
 70
     0
  9
$DIMSE2
 70
     0
  9
$DIMTAD
 70
     0
  9
$DIMZIN
 70
     0
  9
$DIMBLK
  1
VDDIM_DEFAULT
  9
$DIMASO
 70
     1
  9
$DIMSHO
 70
     1
  9
$DIMPOST
  1

  9
$DIMAPOST
  1

  9
$DIMALT
 70
     0
  9
$DIMALTD
 70
     2
  9
$DIMALTF
 40
25.4
  9
$DIMLFAC
 40
1.0
  9
$DIMTOFL
 70
     1
  9
$DIMTVP
 40
0.0
  9
$DIMTIX
 70
     1
  9
$DIMSOXD
 70
     0
  9
$DIMSAH
 70
     0
  9
$DIMBLK1
  1

  9
$DIMBLK2
  1

  9
$DIMSTYLE
  2
STANDARD
  9
$DIMCLRD
 70
     0
  9
$DIMCLRE
 70
     0
  9
$DIMCLRT
 70
     0
  9
$DIMTFAC
 40
1.0
  9
$DIMGAP
 40
0.09
  9
$DIMJUST
 70
     0
  9
$DIMSD1
 70
     0
  9
$DIMSD2
 70
     0
  9
$DIMTOLJ
 70
     1
  9
$DIMTZIN
 70
     0
  9
$DIMALTZ
 70
     0
  9
$DIMALTTZ
 70
     0
  9
$DIMUPT
 70
     1
  9
$DIMDEC
 70
     4
  9
$DIMTDEC
 70
     4
  9
$DIMALTU
 70
     2
  9
$DIMALTTD
 70
     2
  9
$DIMTXSTY
  7
STANDARD
  9
$DIMAUNIT
 70
     0
  9
$DIMADEC
 70
     0
  9
$DIMALTRND
 40
0.0
  9
$DIMAZIN
 70
     0
  9
$DIMDSEP
 70
    46
  9
$DIMATFIT
 70
     3
  9
$DIMFRAC
 70
     0
  9
$DIMLDRBLK
  1

  9
$DIMLUNIT
 70
     2
  9
$DIMLWD
 70
    -2
  9
$DIMLWE
 70
    -2
  9
$DIMTMOVE
 70
     0
  9
$LUNITS
 70
     2
  9
$LUPREC
 70
     4
  9
$SKETCHINC
 40
0.1
  9
$FILLETRAD
 40
0.5
  9
$AUNITS
 70
     0
  9
$AUPREC
 70
     0
  9
$MENU
  1
.
  9
$ELEVATION
 40
0.0
  9
$PELEVATION
 40
0.0
  9
$THICKNESS
 40
0.0
  9
$LIMCHECK
 70
     0
  9
$CHAMFERA
 40
0.5
  9
$CHAMFERB
 40
0.5
  9
$CHAMFERC
 40
1.0
  9
$CHAMFERD
 40
0.0
  9
$SKPOLY
 70
     0
  9
$TDCREATE
 40
2457820.514306968
  9
$TDUCREATE
 40
2457820.514306968
  9
$TDUPDATE
 40
2457820.514306979
  9
$TDUUPDATE
 40
2457820.514306979
  9
$TDINDWG
 40
0.0000000116
  9
$TDUSRTIMER
 40
0.0000000116
  9
$USRTIMER
 70
     1
  9
$ANGBASE
 50
0.0
  9
$ANGDIR
 70
     0
  9
$PDMODE
 70
     0
  9
$PDSIZE
 40
0.0
  9
$PLINEWID
 40
0.0
  9
$SPLFRAME
 70
     0
  9
$SPLINETYPE
 70
     6
  9
$SPLINESEGS
 70
     8
  9
$HANDSEED
  5
DD000DEFA1F6
  9
$SURFTAB1
 70
     6
  9
$SURFTAB2
 70
     6
  9
$SURFTYPE
 70
     6
  9
$SURFU
 70
     6
  9
$SURFV
 70
     6
  9
$UCSBASE
  2

  9
$UCSNAME
  2

  9
$UCSORG
 10
0.0
 20
0.0
 30
0.0
  9
$UCSXDIR
 10
1.0
 20
0.0
 30
0.0
  9
$UCSYDIR
 10
0.0
 20
1.0
 30
0.0
  9
$UCSORTHOREF
  2

  9
$UCSORTHOVIEW
 70
     0
  9
$UCSORGTOP
 10
0.0
 20
0.0
 30
0.0
  9
$UCSORGBOTTOM
 10
0.0
 20
0.0
 30
0.0
  9
$UCSORGLEFT
 10
0.0
 20
0.0
 30
0.0
  9
$UCSORGRIGHT
 10
0.0
 20
0.0
 30
0.0
  9
$UCSORGFRONT
 10
0.0
 20
0.0
 30
0.0
  9
$UCSORGBACK
 10
0.0
 20
0.0
 30
0.0
  9
$PUCSBASE
  2

  9
$PUCSNAME
  2

  9
$PUCSORG
 10
0.0
 20
0.0
 30
0.0
  9
$PUCSXDIR
 10
1.0
 20
0.0
 30
0.0
  9
$PUCSYDIR
 10
0.0
 20
1.0
 30
0.0
  9
$PUCSORTHOREF
  2

  9
$PUCSORTHOVIEW
 70
     0
  9
$PUCSORGTOP
 10
0.0
 20
0.0
 30
0.0
  9
$PUCSORGBOTTOM
 10
0.0
 20
0.0
 30
0.0
  9
$PUCSORGLEFT
 10
0.0
 20
0.0
 30
0.0
  9
$PUCSORGRIGHT
 10
0.0
 20
0.0
 30
0.0
  9
$PUCSORGFRONT
 10
0.0
 20
0.0
 30
0.0
  9
$PUCSORGBACK
 10
0.0
 20
0.0
 30
0.0
  9
$USERI1
 70
     0
  9
$USERI2
 70
     0
  9
$USERI3
 70
     0
  9
$USERI4
 70
     0
  9
$USERI5
 70
     0
  9
$USERR1
 40
0.0
  9
$USERR2
 40
0.0
  9
$USERR3
 40
0.0
  9
$USERR4
 40
0.0
  9
$USERR5
 40
0.0
  9
$WORLDVIEW
 70
     1
  9
$SHADEDGE
 70
     3
  9
$SHADEDIF
 70
    70
  9
$TILEMODE
 70
     1
  9
$MAXACTVP
 70
    64
  9
$PINSBASE
 10
0.0
 20
0.0
 30
0.0
  9
$PLIMCHECK
 70
     0
  9
$PEXTMIN
 10
1.000000000000000E+20
 20
1.000000000000000E+20
 30
1.000000000000000E+20
  9
$PEXTMAX
 10
-1.000000000000000E+20
 20
-1.000000000000000E+20
 30
-1.000000000000000E+20
  9
$PLIMMIN
 10
0.0
 20
0.0
  9
$PLIMMAX
 10
12.0
 20
9.0
  9
$UNITMODE
 70
     0
  9
$VISRETAIN
 70
     1
  9
$PLINEGEN
 70
     0
  9
$PSLTSCALE
 70
     1
  9
$TREEDEPTH
 70
  3020
  9
$CMLSTYLE
  2
Standard
  9
$CMLJUST
 70
     0
  9
$CMLSCALE
 40
1.0
  9
$PROXYGRAPHICS
 70
     1
  9
$MEASUREMENT
 70
     0
  9
$CELWEIGHT
370
    -1
  9
$ENDCAPS
280
     0
  9
$JOINSTYLE
280
     0
  9
$LWDISPLAY
290
     0
  9
$INSUNITS
 70
     1
  9
$HYPERLINKBASE
  1

  9
$STYLESHEET
  1

  9
$XEDIT
290
     1
  9
$CEPSNTYPE
380
     0
  9
$PSTYLEMODE
290
     0
  9
$FINGERPRINTGUID
  2
{FAEB1C30-E019-11D5-929B-00C0DF256EC4}
  9
$VERSIONGUID
  2
{FAEB1C32-E019-11D5-929B-00C0DF256EC4}
  9
$EXTNAMES
290
     1
  9
$PSVPSCALE
 40
0.0
  9
$OLESTARTUP
290
     0
  0
ENDSEC
  0
SECTION
  2
CLASSES
  0
CLASS
  1
ACDBDICTIONARYWDFLT
  2
AcDbDictionaryWithDefault
  3
ObjectDBX Classes
 90
        0
280
     0
281
     0
  0
CLASS
  1
ACDBPLACEHOLDER
  2
AcDbPlaceHolder
  3
ObjectDBX Classes
 90
        0
280
     0
281
     0
  0
CLASS
  1
LAYOUT
  2
AcDbLayout
  3
ObjectDBX Classes
 90
        0
280
     0
281
     0
  0
ENDSEC
  0
SECTION
  2
TABLES
  0
TABLE
  2
VPORT
  5
DD000DEFA183
330
0
100
AcDbSymbolTable
 70
     2
  0
VPORT
  5
DD000DEFA1A4
330
DD000DEFA183
100
AcDbSymbolTableRecord
100
AcDbViewportTableRecord
  2
*Active
 70
     0
 10
0.0
 20
0.0
 11
1.0
 21
1.0
 12
171.7474078756292
 22
21.84104207204275
 13
0.0
 23
0.0
 14
0.5
 24
0.5
 15
0.5
 25
0.5
 16
0.0
 26
0.0
 36
1.0
 17
0.0
 27
0.0
 37
0.0
 40
71.97728395061905
 41
0.2466994554536847
 42
50.0
 43
0.0
 44
0.0
 50
0.0
 51
0.0000000000007958
 71
     0
 72
   100
 73
     1
 74
     3
 75
     0
 76
     0
 77
     0
 78
     0
281
     0
 65
     1
110
0.0
120
0.0
130
0.0
111
1.0
121
0.0
131
0.0
112
0.0
122
1.0
132
0.0
 79
     0
146
0.0
  0
ENDTAB
  0
TABLE
  2
LTYPE
  5
DD000DEFA180
330
0
100
AcDbSymbolTable
 70
    25
  0
LTYPE
  5
DD000DEFA18F
330
DD000DEFA180
100
AcDbSymbolTableRecord
100
AcDbLinetypeTableRecord
  2
ByBlock
 70
     0
  3

 72
    65
 73
     0
 40
0.0
  0
LTYPE
  5
DD000DEFA190
330
DD000DEFA180
100
AcDbSymbolTableRecord
100
AcDbLinetypeTableRecord
  2
ByLayer
 70
     0
  3

 72
    65
 73
     0
 40
0.0
  0
LTYPE
  5
DD000DEFA191
330
DD000DEFA180
100
AcDbSymbolTableRecord
100
AcDbLinetypeTableRecord
  2
Continuous
 70
     0
  3
Solid line
 72
    65
 73
     0
 40
0.0
  0
LTYPE
  5
DD000DEFA1AC
330
DD000DEFA180
100
AcDbSymbolTableRecord
100
AcDbLinetypeTableRecord
  2
CENTER
 70
     0
  3
Center ____ _ ____ _ ____ _ ____ _ ____ _ ____
 72
    65
 73
     4
 40
2.0
 49
1.25
 74
     0
 49
-0.25
 74
     0
 49
0.25
 74
     0
 49
-0.25
 74
     0
  0
LTYPE
  5
DD000DEFA1AD
330
DD000DEFA180
100
AcDbSymbolTableRecord
100
AcDbLinetypeTableRecord
  2
DASHDOT
 70
     0
  3
Dashdot __ . __ . __ . __ . __ . __ . __ . __
 72
    65
 73
     4
 40
1.0
 49
0.5
 74
     0
 49
-0.25
 74
     0
 49
0.0
 74
     0
 49
-0.25
 74
     0
  0
LTYPE
  5
DD000DEFA1AE
330
DD000DEFA180
100
AcDbSymbolTableRecord
100
AcDbLinetypeTableRecord
  2
DASHED
 70
     0
  3
Dashed __ __ __ __ __ __ __ __ __ __ __ __ __ _
 72
    65
 73
     2
 40
0.75
 49
0.5
 74
     0
 49
-0.25
 74
     0
  0
LTYPE
  5
DD000DEFA1AF
330
DD000DEFA180
100
AcDbSymbolTableRecord
100
AcDbLinetypeTableRecord
  2
HIDDEN
 70
     0
  3
Hidden __ __ __ __ __ __ __ __ __ __ __ __ __ __
 72
    65
 73
     2
 40
0.375
 49
0.25
 74
     0
 49
-0.125
 74
     0
  0
LTYPE
  5
DD000DEFA1B0
330
DD000DEFA180
100
AcDbSymbolTableRecord
100
AcDbLinetypeTableRecord
  2
HIDDEN2
 70
     0
  3
Hidden2 _ _ _ _ _ _ _ _ _ _ _ _ _ _ _ _ _ 
 72
    65
 73
     2
 40
0.1875
 49
0.125
 74
     0
 49
-0.0625
 74
     0
  0
LTYPE
  5
DD000DEFA1B1
330
DD000DEFA180
100
AcDbSymbolTableRecord
100
AcDbLinetypeTableRecord
  2
BORDER
 70
     0
  3
Border __ __ . __ __ . __ __ . __ __ . __ __ .
 72
    65
 73
     6
 40
1.75
 49
0.5
 74
     0
 49
-0.25
 74
     0
 49
0.5
 74
     0
 49
-0.25
 74
     0
 49
0.0
 74
     0
 49
-0.25
 74
     0
  0
LTYPE
  5
DD000DEFA1B2
330
DD000DEFA180
100
AcDbSymbolTableRecord
100
AcDbLinetypeTableRecord
  2
BORDER2
 70
     0
  3
Border2 __.__.__.__.__.__.__.__.__.__.__.
 72
    65
 73
     6
 40
0.875
 49
0.25
 74
     0
 49
-0.125
 74
     0
 49
0.25
 74
     0
 49
-0.125
 74
     0
 49
0.0
 74
     0
 49
-0.125
 74
     0
  0
LTYPE
  5
DD000DEFA1B3
330
DD000DEFA180
100
AcDbSymbolTableRecord
100
AcDbLinetypeTableRecord
  2
BORDERX2
 70
     0
  3
Borderx2  ____  ____  .  ____  ____  .  ___
 72
    65
 73
     6
 40
3.5
 49
1.0
 74
     0
 49
-0.5
 74
     0
 49
1.0
 74
     0
 49
-0.5
 74
     0
 49
0.0
 74
     0
 49
-0.5
 74
     0
  0
LTYPE
  5
DD000DEFA1B4
330
DD000DEFA180
100
AcDbSymbolTableRecord
100
AcDbLinetypeTableRecord
  2
CENTER2
 70
     0
  3
Center2  ___ _ ___ _ ___ _ ___ _ ___ _ ___
 72
    65
 73
     4
 40
1.125
 49
0.75
 74
     0
 49
-0.125
 74
     0
 49
0.125
 74
     0
 49
-0.125
 74
     0
  0
LTYPE
  5
DD000DEFA1B5
330
DD000DEFA180
100
AcDbSymbolTableRecord
100
AcDbLinetypeTableRecord
  2
CENTERX2
 70
     0
  3
Centerx2  ________  __  ________  __  _____
 72
    65
 73
     4
 40
4.0
 49
2.5
 74
     0
 49
-0.5
 74
     0
 49
0.5
 74
     0
 49
-0.5
 74
     0
  0
LTYPE
  5
DD000DEFA1B6
330
DD000DEFA180
100
AcDbSymbolTableRecord
100
AcDbLinetypeTableRecord
  2
DASHDOT2
 70
     0
  3
Dashdot2  _._._._._._._._._._._._._._._.
 72
    65
 73
     4
 40
0.5
 49
0.25
 74
     0
 49
-0.125
 74
     0
 49
0.0
 74
     0
 49
-0.125
 74
     0
  0
LTYPE
  5
DD000DEFA1B7
330
DD000DEFA180
100
AcDbSymbolTableRecord
100
AcDbLinetypeTableRecord
  2
DASHDOTX2
 70
     0
  3
Dashdotx2 ____  .  ____  .  ____  .  ___
 72
    65
 73
     4
 40
2.0
 49
1.0
 74
     0
 49
-0.5
 74
     0
 49
0.0
 74
     0
 49
-0.5
 74
     0
  0
LTYPE
  5
DD000DEFA1B8
330
DD000DEFA180
100
AcDbSymbolTableRecord
100
AcDbLinetypeTableRecord
  2
DASHED2
 70
     0
  3
Dashed2 _ _ _ _ _ _ _ _ _ _ _ _ _ _ _ _ _ 
 72
    65
 73
     2
 40
0.375
 49
0.25
 74
     0
 49
-0.125
 74
     0
  0
LTYPE
  5
DD000DEFA1B9
330
DD000DEFA180
100
AcDbSymbolTableRecord
100
AcDbLinetypeTableRecord
  2
DASHEDX2
 70
     0
  3
Dashedx2 ____  ____  ____  ____  ____  ___
 72
    65
 73
     2
 40
1.5
 49
1.0
 74
     0
 49
-0.5
 74
     0
  0
LTYPE
  5
DD000DEFA1BA
330
DD000DEFA180
100
AcDbSymbolTableRecord
100
AcDbLinetypeTableRecord
  2
DIVIDE
 70
     0
  3
Divide ____ . . ____ . . ____ . . ____ . . ____
 72
    65
 73
     6
 40
1.25
 49
0.5
 74
     0
 49
-0.25
 74
     0
 49
0.0
 74
     0
 49
-0.25
 74
     0
 49
0.0
 74
     0
 49
-0.25
 74
     0
  0
LTYPE
  5
DD000DEFA1BB
330
DD000DEFA180
100
AcDbSymbolTableRecord
100
AcDbLinetypeTableRecord
  2
DIVIDE2
 70
     0
  3
Divide2 __..__..__..__..__..__..__..__.._
 72
    65
 73
     6
 40
0.625
 49
0.25
 74
     0
 49
-0.125
 74
     0
 49
0.0
 74
     0
 49
-0.125
 74
     0
 49
0.0
 74
     0
 49
-0.125
 74
     0
  0
LTYPE
  5
DD000DEFA1BC
330
DD000DEFA180
100
AcDbSymbolTableRecord
100
AcDbLinetypeTableRecord
  2
DIVIDEX2
 70
     0
  3
Dividex2 ________  .  .  ________  .  .  _
 72
    65
 73
     6
 40
2.5
 49
1.0
 74
     0
 49
-0.5
 74
     0
 49
0.0
 74
     0
 49
-0.5
 74
     0
 49
0.0
 74
     0
 49
-0.5
 74
     0
  0
LTYPE
  5
DD000DEFA1BD
330
DD000DEFA180
100
AcDbSymbolTableRecord
100
AcDbLinetypeTableRecord
  2
DOT
 70
     0
  3
Dot . . . . . . . . . . . . . . . . . . . . . . . .
 72
    65
 73
     2
 40
0.25
 49
0.0
 74
     0
 49
-0.25
 74
     0
  0
LTYPE
  5
DD000DEFA1BE
330
DD000DEFA180
100
AcDbSymbolTableRecord
100
AcDbLinetypeTableRecord
  2
DOT2
 70
     0
  3
Dot2 ........................................
 72
    65
 73
     2
 40
0.125
 49
0.0
 74
     0
 49
-0.125
 74
     0
  0
LTYPE
  5
DD000DEFA1BF
330
DD000DEFA180
100
AcDbSymbolTableRecord
100
AcDbLinetypeTableRecord
  2
DOTX2
 70
     0
  3
Dotx2 .  .  .  .  .  .  .  .  .  .  .  .  .  .
 72
    65
 73
     2
 40
0.5
 49
0.0
 74
     0
 49
-0.5
 74
     0
  0
LTYPE
  5
DD000DEFA1C0
330
DD000DEFA180
100
AcDbSymbolTableRecord
100
AcDbLinetypeTableRecord
  2
HIDDENX2
 70
     0
  3
Hiddenx2 ____ ____ ____ ____ ____ ____ ____ 
 72
    65
 73
     2
 40
0.75
 49
0.5
 74
     0
 49
-0.25
 74
     0
  0
LTYPE
  5
DD000DEFA1C1
330
DD000DEFA180
100
AcDbSymbolTableRecord
100
AcDbLinetypeTableRecord
  2
PHANTOM
 70
     0
  3
Phantom ______  __  __  ______  __  __  ______ 
 72
    65
 73
     6
 40
2.5
 49
1.25
 74
     0
 49
-0.25
 74
     0
 49
0.25
 74
     0
 49
-0.25
 74
     0
 49
0.25
 74
     0
 49
-0.25
 74
     0
  0
LTYPE
  5
DD000DEFA1C2
330
DD000DEFA180
100
AcDbSymbolTableRecord
100
AcDbLinetypeTableRecord
  2
PHANTOM2
 70
     0
  3
Phantom2 ___ _ _ ___ _ _ ___ _ _ ___ _ _
 72
    65
 73
     6
 40
1.25
 49
0.625
 74
     0
 49
-0.125
 74
     0
 49
0.125
 74
     0
 49
-0.125
 74
     0
 49
0.125
 74
     0
 49
-0.125
 74
     0
  0
LTYPE
  5
DD000DEFA1C3
330
DD000DEFA180
100
AcDbSymbolTableRecord
100
AcDbLinetypeTableRecord
  2
PHANTOMX2
 70
     0
  3
Phantomx2 ____________    ____    ____   _
 72
    65
 73
     6
 40
5.0
 49
2.5
 74
     0
 49
-0.5
 74
     0
 49
0.5
 74
     0
 49
-0.5
 74
     0
 49
0.5
 74
     0
 49
-0.5
 74
     0
  0
ENDTAB
  0
TABLE
  2
LAYER
  5
DD000DEFA17D
330
0
100
AcDbSymbolTable
 70
     4
  0
LAYER
  5
DD000DEFA18B
330
DD000DEFA17D
100
AcDbSymbolTableRecord
100
AcDbLayerTableRecord
  2
0
 70
     0
 62
     7
  6
Continuous
370
     0
390
DD000DEFA18A
  0
LAYER
  5
1B0
330
DD000DEFA17D
100
AcDbSymbolTableRecord
100
AcDbLayerTableRecord
  2
20
 70
     0
 62
     3
  6
Continuous
370
     0
390
DD000DEFA18A
  0
LAYER
  5
DD000DEFA033
330
DD000DEFA17D
100
AcDbSymbolTableRecord
100
AcDbLayerTableRecord
  2
21
 70
     0
 62
     2
  6
Continuous
370
     0
390
DD000DEFA18A
  0
LAYER
  5
DD000DEFA162
330
DD000DEFA17D
100
AcDbSymbolTableRecord
100
AcDbLayerTableRecord
  2
52
 70
     0
 62
     2
  6
Continuous
370
     0
390
DD000DEFA18A
  0
ENDTAB
  0
TABLE
  2
STYLE
  5
DD000DEFA17E
330
0
100
AcDbSymbolTable
 70
     1
  0
STYLE
  5
DD000DEFA18C
330
DD000DEFA17E
100
AcDbSymbolTableRecord
100
AcDbTextStyleTableRecord
  2
STANDARD
 70
     0
 40
0.0
 41
1.0
 50
0.0
 71
     0
 42
0.2
  3
txt.shx
  4

1001
ACAD
1000
txt.shx
1071
        0
  0
ENDTAB
  0
TABLE
  2
VIEW
  5
DD000DEFA181
330
0
100
AcDbSymbolTable
 70
     0
  0
ENDTAB
  0
TABLE
  2
UCS
  5
DD000DEFA182
330
0
100
AcDbSymbolTable
 70
     0
  0
ENDTAB
  0
TABLE
  2
APPID
  5
DD000DEFA184
330
0
100
AcDbSymbolTable
 70
     6
  0
APPID
  5
DD000DEFA18D
330
DD000DEFA184
100
AcDbSymbolTableRecord
100
AcDbRegAppTableRecord
  2
ACAD
 70
     0
  0
APPID
  5
DD000DEFA1A5
330
DD000DEFA184
100
AcDbSymbolTableRecord
100
AcDbRegAppTableRecord
  2
VD_INVISIBLE_NOT_FOR_READ
 70
     0
  0
APPID
  5
DD000DEFA1A6
330
DD000DEFA184
100
AcDbSymbolTableRecord
100
AcDbRegAppTableRecord
  2
VD_TEMPHATCH
 70
     0
  0
APPID
  5
DD000DEFA1A7
330
DD000DEFA184
100
AcDbSymbolTableRecord
100
AcDbRegAppTableRecord
  2
VDEXTRAPARAM
 70
     0
  0
APPID
  5
DD000DEFA1A8
330
DD000DEFA184
100
AcDbSymbolTableRecord
100
AcDbRegAppTableRecord
  2
PE_URL
 70
     0
  0
APPID
  5
DD000DEFA1A9
330
DD000DEFA184
100
AcDbSymbolTableRecord
100
AcDbRegAppTableRecord
  2
VD_UNKNOWN
 70
     0
  0
ENDTAB
  0
TABLE
  2
DIMSTYLE
  5
DD000DEFA185
330
0
100
AcDbSymbolTable
 70
     1
100
AcDbDimStyleTable
  0
DIMSTYLE
105
DD000DEFA1A2
330
DD000DEFA185
100
AcDbSymbolTableRecord
100
AcDbDimStyleTableRecord
  2
STANDARD
 70
     0
172
     1
174
     1
288
     1
340
DD000DEFA18C
342
DD000DEFA022
  0
ENDTAB
  0
TABLE
  2
BLOCK_RECORD
  5
DD000DEFA17C
330
0
100
AcDbSymbolTable
 70
    23
  0
BLOCK_RECORD
  5
DD000DEFA19A
330
DD000DEFA17C
100
AcDbSymbolTableRecord
100
AcDbBlockTableRecord
  2
*Model_Space
340
DD000DEFA19D
  0
BLOCK_RECORD
  5
DD000DEFA196
330
DD000DEFA17C
100
AcDbSymbolTableRecord
100
AcDbBlockTableRecord
  2
*Paper_Space
340
DD000DEFA199
  0
BLOCK_RECORD
  5
DD000DEFA19E
330
DD000DEFA17C
100
AcDbSymbolTableRecord
100
AcDbBlockTableRecord
  2
*Paper_Space0
340
DD000DEFA1A1
  0
BLOCK_RECORD
  5
DD000DEFA004
330
DD000DEFA17C
100
AcDbSymbolTableRecord
100
AcDbBlockTableRecord
  2
$PAPER_SPACE0
340
0
  0
BLOCK_RECORD
  5
DD000DEFA006
330
DD000DEFA17C
100
AcDbSymbolTableRecord
100
AcDbBlockTableRecord
  2
RECT
340
0
  0
BLOCK_RECORD
  5
DD000DEFA008
330
DD000DEFA17C
100
AcDbSymbolTableRecord
100
AcDbBlockTableRecord
  2
PIE
340
0
  0
BLOCK_RECORD
  5
DD000DEFA00A
330
DD000DEFA17C
100
AcDbSymbolTableRecord
100
AcDbBlockTableRecord
  2
OCTAGONP
340
0
  0
BLOCK_RECORD
  5
DD000DEFA00C
330
DD000DEFA17C
100
AcDbSymbolTableRecord
100
AcDbBlockTableRecord
  2
SQUAREP
340
0
  0
BLOCK_RECORD
  5
DD000DEFA00E
330
DD000DEFA17C
100
AcDbSymbolTableRecord
100
AcDbBlockTableRecord
  2
ROUNDP
340
0
  0
BLOCK_RECORD
  5
DD000DEFA010
330
DD000DEFA17C
100
AcDbSymbolTableRecord
100
AcDbBlockTableRecord
  2
ANNULUSP
340
0
  0
BLOCK_RECORD
  5
DD000DEFA012
330
DD000DEFA17C
100
AcDbSymbolTableRecord
100
AcDbBlockTableRecord
  2
THERMALP
340
0
  0
BLOCK_RECORD
  5
DD000DEFA014
330
DD000DEFA17C
100
AcDbSymbolTableRecord
100
AcDbBlockTableRecord
  2
OCTAGONV
340
0
  0
BLOCK_RECORD
  5
DD000DEFA016
330
DD000DEFA17C
100
AcDbSymbolTableRecord
100
AcDbBlockTableRecord
  2
SQUAREV
340
0
  0
BLOCK_RECORD
  5
DD000DEFA018
330
DD000DEFA17C
100
AcDbSymbolTableRecord
100
AcDbBlockTableRecord
  2
ROUNDV
340
0
  0
BLOCK_RECORD
  5
DD000DEFA01A
330
DD000DEFA17C
100
AcDbSymbolTableRecord
100
AcDbBlockTableRecord
  2
ANNULUSV
340
0
  0
BLOCK_RECORD
  5
DD000DEFA01C
330
DD000DEFA17C
100
AcDbSymbolTableRecord
100
AcDbBlockTableRecord
  2
THERMALV
340
0
  0
BLOCK_RECORD
  5
DD000DEFA01E
330
DD000DEFA17C
100
AcDbSymbolTableRecord
100
AcDbBlockTableRecord
  2
LONGP100
340
0
  0
BLOCK_RECORD
  5
DD000DEFA020
330
DD000DEFA17C
100
AcDbSymbolTableRecord
100
AcDbBlockTableRecord
  2
OFFSETP100
340
0
  0
BLOCK_RECORD
  5
DD000DEFA022
330
DD000DEFA17C
100
AcDbSymbolTableRecord
100
AcDbBlockTableRecord
  2
VDDIM_DEFAULT
340
0
  0
BLOCK_RECORD
  5
DD000DEFA024
330
DD000DEFA17C
100
AcDbSymbolTableRecord
100
AcDbBlockTableRecord
  2
VDDIM_NONE
340
0
  0
BLOCK_RECORD
  5
DD000DEFA026
330
DD000DEFA17C
100
AcDbSymbolTableRecord
100
AcDbBlockTableRecord
  2
VDRAWCLIP1487689685
340
0
  0
BLOCK_RECORD
  5
DD000DEFA031
330
DD000DEFA17C
100
AcDbSymbolTableRecord
100
AcDbBlockTableRecord
  2
VDRAWCLIP1488888145
340
0
  0
BLOCK_RECORD
  5
DD000DEFA0BB
330
DD000DEFA17C
100
AcDbSymbolTableRecord
100
AcDbBlockTableRecord
  2
VDRAWCLIP1488888211
340
0
102
{BLKREFS
331
DD000DEFA0BC
102
}
  0
BLOCK_RECORD
  5
DD000DEFA0BD
330
DD000DEFA17C
100
AcDbSymbolTableRecord
100
AcDbBlockTableRecord
  2
VDRAWCLIP1488888301
340
0
  0
BLOCK_RECORD
  5
DD000DEFA160
330
DD000DEFA17C
100
AcDbSymbolTableRecord
100
AcDbBlockTableRecord
  2
VDRAWCLIP1488888980
340
0
  0
ENDTAB
  0
ENDSEC
  0
SECTION
  2
BLOCKS
  0
BLOCK
  5
DD000DEFA19B
330
DD000DEFA19A
100
AcDbEntity
  8
0
100
AcDbBlockBegin
  2
*Model_Space
 70
     0
 71
     0
 10
0.0
 20
0.0
 30
0.0
  3
*Model_Space
  1

  0
ENDBLK
  5
DD000DEFA19C
330
DD000DEFA19A
100
AcDbEntity
  8
0
100
AcDbBlockEnd
  0
BLOCK
  5
DD000DEFA197
330
DD000DEFA196
100
AcDbEntity
 67
     1
  8
0
100
AcDbBlockBegin
  2
*Paper_Space
 70
     0
 71
     0
 10
0.0
 20
0.0
 30
0.0
  3
*Paper_Space
  1

  0
ENDBLK
  5
DD000DEFA198
330
DD000DEFA196
100
AcDbEntity
 67
     1
  8
0
100
AcDbBlockEnd
  0
BLOCK
  5
DD000DEFA19F
330
DD000DEFA19E
100
AcDbEntity
  8
0
100
AcDbBlockBegin
  2
*Paper_Space0
 70
     0
 71
     0
 10
0.0
 20
0.0
 30
0.0
  3
*Paper_Space0
  1

  0
ENDBLK
  5
DD000DEFA1A0
330
DD000DEFA19E
100
AcDbEntity
  8
0
100
AcDbBlockEnd
  0
BLOCK
  5
DD000DEFA1C4
330
DD000DEFA004
100
AcDbEntity
  8
0
100
AcDbBlockBegin
  2
$PAPER_SPACE0
 70
     0
 71
     0
 10
0.0
 20
0.0
 30
0.0
  3
$PAPER_SPACE0
  1

  0
ENDBLK
  5
DD000DEFA1C5
330
DD000DEFA004
100
AcDbEntity
  8
0
100
AcDbBlockEnd
  0
BLOCK
  5
DD000DEFA1C6
330
DD000DEFA006
100
AcDbEntity
  8
0
100
AcDbBlockBegin
  2
RECT
 70
     0
 71
     0
 10
0.0
 20
0.0
 30
0.0
  3
RECT
  1

  0
LWPOLYLINE
  5
24
330
DD000DEFA006
100
AcDbEntity
  8
0
100
AcDbPolyline
 90
        4
 70
     1
 43
0.0
 10
-0.5
 20
-0.5
 10
0.5
 20
-0.5
 10
0.5
 20
0.5
 10
-0.5
 20
0.5
1001
VDEXTRAPARAM
1071
       65
1071
        0
1071
        0
1040
1.0
1000

1000

1040
0.0
1040
0.0
  0
HATCH
  5
DD000DEFA1F0
330
DD000DEFA006
100
AcDbEntity
  8
0
100
AcDbHatch
 10
0.0
 20
0.0
 30
0.0
210
0.0
220
0.0
230
1.0
  2
SOLID
 70
     1
 71
     0
 91
        1
 92
        2
 72
     0
 73
     1
 93
        4
 10
-0.5
 20
-0.5
 10
0.5
 20
-0.5
 10
0.5
 20
0.5
 10
-0.5
 20
0.5
 97
        0
 75
     0
 76
     1
 98
        1
 10
0.0
 20
0.0
1001
VDEXTRAPARAM
1071
       65
1071
        0
1071
        0
1040
1.0
1000

1000

1040
0.0
1040
0.0
1001
VD_TEMPHATCH
1000
VD_TEMPHATCH
  0
HATCH
  5
120
330
DD000DEFA006
100
AcDbEntity
  8
0
100
AcDbHatch
 10
0.0
 20
0.0
 30
0.0
210
0.0
220
0.0
230
1.0
  2
SOLID
 70
     1
 71
     0
 91
        1
 92
        3
 72
     0
 73
     1
 93
        4
 10
-0.5
 20
-0.5
 10
0.5
 20
-0.5
 10
0.5
 20
0.5
 10
-0.5
 20
0.5
 97
        0
 75
     0
 76
     1
 98
        1
 10
0.0
 20
0.0
1001
VDEXTRAPARAM
1071
       65
1071
        0
1071
        0
1040
1.0
1000
SOLID
1000

1040
0.0
1040
0.0
  0
ENDBLK
  5
DD000DEFA1C7
330
DD000DEFA006
100
AcDbEntity
  8
0
100
AcDbBlockEnd
  0
BLOCK
  5
DD000DEFA1C8
330
DD000DEFA008
100
AcDbEntity
  8
0
100
AcDbBlockBegin
  2
PIE
 70
     0
 71
     0
 10
0.0
 20
0.0
 30
0.0
  3
PIE
  1

  0
CIRCLE
  5
28
330
DD000DEFA008
100
AcDbEntity
  8
0
100
AcDbCircle
 10
0.0
 20
0.0
 30
0.0
 40
0.5
  0
ENDBLK
  5
DD000DEFA1C9
330
DD000DEFA008
100
AcDbEntity
  8
0
100
AcDbBlockEnd
  0
BLOCK
  5
DD000DEFA1CA
330
DD000DEFA00A
100
AcDbEntity
  8
0
100
AcDbBlockBegin
  2
OCTAGONP
 70
     0
 71
     0
 10
0.0
 20
0.0
 30
0.0
  3
OCTAGONP
  1

  0
LWPOLYLINE
  5
2C
330
DD000DEFA00A
100
AcDbEntity
  8
0
100
AcDbPolyline
 90
        8
 70
     1
 43
0.0
 10
-0.5
 20
-0.2071
 10
-0.5
 20
0.2071
 10
-0.2071
 20
0.5
 10
0.2071
 20
0.5
 10
0.5
 20
0.2071
 10
0.5
 20
-0.2071
 10
0.2071
 20
-0.5
 10
-0.2071
 20
-0.5
  0
ENDBLK
  5
DD000DEFA1CB
330
DD000DEFA00A
100
AcDbEntity
  8
0
100
AcDbBlockEnd
  0
BLOCK
  5
DD000DEFA1CC
330
DD000DEFA00C
100
AcDbEntity
  8
0
100
AcDbBlockBegin
  2
SQUAREP
 70
     0
 71
     0
 10
0.0
 20
0.0
 30
0.0
  3
SQUAREP
  1

  0
LWPOLYLINE
  5
39
330
DD000DEFA00C
100
AcDbEntity
  8
0
100
AcDbPolyline
 90
        4
 70
     1
 43
0.0
 10
-0.5
 20
-0.5
 10
0.5
 20
-0.5
 10
0.5
 20
0.5
 10
-0.5
 20
0.5
1001
VDEXTRAPARAM
1071
       65
1071
        0
1071
        0
1040
1.0
1000

1000

1040
0.0
1040
0.0
  0
HATCH
  5
DD000DEFA1F1
330
DD000DEFA00C
100
AcDbEntity
  8
0
100
AcDbHatch
 10
0.0
 20
0.0
 30
0.0
210
0.0
220
0.0
230
1.0
  2
SOLID
 70
     1
 71
     0
 91
        1
 92
        2
 72
     0
 73
     1
 93
        4
 10
-0.5
 20
-0.5
 10
0.5
 20
-0.5
 10
0.5
 20
0.5
 10
-0.5
 20
0.5
 97
        0
 75
     0
 76
     1
 98
        1
 10
0.0
 20
0.0
1001
VDEXTRAPARAM
1071
       65
1071
        0
1071
        0
1040
1.0
1000

1000

1040
0.0
1040
0.0
1001
VD_TEMPHATCH
1000
VD_TEMPHATCH
  0
HATCH
  5
121
330
DD000DEFA00C
100
AcDbEntity
  8
0
100
AcDbHatch
 10
0.0
 20
0.0
 30
0.0
210
0.0
220
0.0
230
1.0
  2
SOLID
 70
     1
 71
     0
 91
        1
 92
        3
 72
     0
 73
     1
 93
        4
 10
-0.5
 20
-0.5
 10
0.5
 20
-0.5
 10
0.5
 20
0.5
 10
-0.5
 20
0.5
 97
        0
 75
     0
 76
     1
 98
        1
 10
0.0
 20
0.0
1001
VDEXTRAPARAM
1071
       65
1071
        0
1071
        0
1040
1.0
1000
SOLID
1000

1040
0.0
1040
0.0
  0
ENDBLK
  5
DD000DEFA1CD
330
DD000DEFA00C
100
AcDbEntity
  8
0
100
AcDbBlockEnd
  0
BLOCK
  5
DD000DEFA1CE
330
DD000DEFA00E
100
AcDbEntity
  8
0
100
AcDbBlockBegin
  2
ROUNDP
 70
     0
 71
     0
 10
0.0
 20
0.0
 30
0.0
  3
ROUNDP
  1

  0
CIRCLE
  5
3D
330
DD000DEFA00E
100
AcDbEntity
  8
0
100
AcDbCircle
 10
0.0
 20
0.0
 30
0.0
 40
0.5
  0
ENDBLK
  5
DD000DEFA1CF
330
DD000DEFA00E
100
AcDbEntity
  8
0
100
AcDbBlockEnd
  0
BLOCK
  5
DD000DEFA1D0
330
DD000DEFA010
100
AcDbEntity
  8
0
100
AcDbBlockBegin
  2
ANNULUSP
 70
     0
 71
     0
 10
0.0
 20
0.0
 30
0.0
  3
ANNULUSP
  1

  0
CIRCLE
  5
41
330
DD000DEFA010
100
AcDbEntity
  8
0
100
AcDbCircle
 10
0.0
 20
0.0
 30
0.0
 40
0.5
  0
ENDBLK
  5
DD000DEFA1D1
330
DD000DEFA010
100
AcDbEntity
  8
0
100
AcDbBlockEnd
  0
BLOCK
  5
DD000DEFA1D2
330
DD000DEFA012
100
AcDbEntity
  8
0
100
AcDbBlockBegin
  2
THERMALP
 70
     0
 71
     0
 10
0.0
 20
0.0
 30
0.0
  3
THERMALP
  1

  0
LINE
  5
45
330
DD000DEFA012
100
AcDbEntity
  8
0
100
AcDbLine
 10
-0.2379
 20
0.45
 30
0.0
 11
0.2379
 21
0.45
 31
0.0
  0
LINE
  5
46
330
DD000DEFA012
100
AcDbEntity
  8
0
100
AcDbLine
 10
0.45
 20
0.2379
 30
0.0
 11
0.45
 21
-0.2379
 31
0.0
  0
LINE
  5
47
330
DD000DEFA012
100
AcDbEntity
  8
0
100
AcDbLine
 10
0.2379
 20
-0.45
 30
0.0
 11
-0.2379
 21
-0.45
 31
0.0
  0
LINE
  5
48
330
DD000DEFA012
100
AcDbEntity
  8
0
100
AcDbLine
 10
-0.45
 20
-0.2379
 30
0.0
 11
-0.45
 21
0.2379
 31
0.0
  0
ENDBLK
  5
DD000DEFA1D3
330
DD000DEFA012
100
AcDbEntity
  8
0
100
AcDbBlockEnd
  0
BLOCK
  5
DD000DEFA1D4
330
DD000DEFA014
100
AcDbEntity
  8
0
100
AcDbBlockBegin
  2
OCTAGONV
 70
     0
 71
     0
 10
0.0
 20
0.0
 30
0.0
  3
OCTAGONV
  1

  0
LWPOLYLINE
  5
4C
330
DD000DEFA014
100
AcDbEntity
  8
0
100
AcDbPolyline
 90
        8
 70
     1
 43
0.0
 10
-0.5
 20
-0.2071
 10
-0.5
 20
0.2071
 10
-0.2071
 20
0.5
 10
0.2071
 20
0.5
 10
0.5
 20
0.2071
 10
0.5
 20
-0.2071
 10
0.2071
 20
-0.5
 10
-0.2071
 20
-0.5
  0
ENDBLK
  5
DD000DEFA1D5
330
DD000DEFA014
100
AcDbEntity
  8
0
100
AcDbBlockEnd
  0
BLOCK
  5
DD000DEFA1D6
330
DD000DEFA016
100
AcDbEntity
  8
0
100
AcDbBlockBegin
  2
SQUAREV
 70
     0
 71
     0
 10
0.0
 20
0.0
 30
0.0
  3
SQUAREV
  1

  0
LWPOLYLINE
  5
59
330
DD000DEFA016
100
AcDbEntity
  8
0
100
AcDbPolyline
 90
        4
 70
     1
 43
0.0
 10
-0.5
 20
-0.5
 10
0.5
 20
-0.5
 10
0.5
 20
0.5
 10
-0.5
 20
0.5
1001
VDEXTRAPARAM
1071
       65
1071
        0
1071
        0
1040
1.0
1000

1000

1040
0.0
1040
0.0
  0
HATCH
  5
DD000DEFA1F2
330
DD000DEFA016
100
AcDbEntity
  8
0
100
AcDbHatch
 10
0.0
 20
0.0
 30
0.0
210
0.0
220
0.0
230
1.0
  2
SOLID
 70
     1
 71
     0
 91
        1
 92
        2
 72
     0
 73
     1
 93
        4
 10
-0.5
 20
-0.5
 10
0.5
 20
-0.5
 10
0.5
 20
0.5
 10
-0.5
 20
0.5
 97
        0
 75
     0
 76
     1
 98
        1
 10
0.0
 20
0.0
1001
VDEXTRAPARAM
1071
       65
1071
        0
1071
        0
1040
1.0
1000

1000

1040
0.0
1040
0.0
1001
VD_TEMPHATCH
1000
VD_TEMPHATCH
  0
HATCH
  5
122
330
DD000DEFA016
100
AcDbEntity
  8
0
100
AcDbHatch
 10
0.0
 20
0.0
 30
0.0
210
0.0
220
0.0
230
1.0
  2
SOLID
 70
     1
 71
     0
 91
        1
 92
        3
 72
     0
 73
     1
 93
        4
 10
-0.5
 20
-0.5
 10
0.5
 20
-0.5
 10
0.5
 20
0.5
 10
-0.5
 20
0.5
 97
        0
 75
     0
 76
     1
 98
        1
 10
0.0
 20
0.0
1001
VDEXTRAPARAM
1071
       65
1071
        0
1071
        0
1040
1.0
1000
SOLID
1000

1040
0.0
1040
0.0
  0
ENDBLK
  5
DD000DEFA1D7
330
DD000DEFA016
100
AcDbEntity
  8
0
100
AcDbBlockEnd
  0
BLOCK
  5
DD000DEFA1D8
330
DD000DEFA018
100
AcDbEntity
  8
0
100
AcDbBlockBegin
  2
ROUNDV
 70
     0
 71
     0
 10
0.0
 20
0.0
 30
0.0
  3
ROUNDV
  1

  0
CIRCLE
  5
5D
330
DD000DEFA018
100
AcDbEntity
  8
0
100
AcDbCircle
 10
0.0
 20
0.0
 30
0.0
 40
0.5
  0
ENDBLK
  5
DD000DEFA1D9
330
DD000DEFA018
100
AcDbEntity
  8
0
100
AcDbBlockEnd
  0
BLOCK
  5
DD000DEFA1DA
330
DD000DEFA01A
100
AcDbEntity
  8
0
100
AcDbBlockBegin
  2
ANNULUSV
 70
     0
 71
     0
 10
0.0
 20
0.0
 30
0.0
  3
ANNULUSV
  1

  0
CIRCLE
  5
61
330
DD000DEFA01A
100
AcDbEntity
  8
0
100
AcDbCircle
 10
0.0
 20
0.0
 30
0.0
 40
0.5
  0
ENDBLK
  5
DD000DEFA1DB
330
DD000DEFA01A
100
AcDbEntity
  8
0
100
AcDbBlockEnd
  0
BLOCK
  5
DD000DEFA1DC
330
DD000DEFA01C
100
AcDbEntity
  8
0
100
AcDbBlockBegin
  2
THERMALV
 70
     0
 71
     0
 10
0.0
 20
0.0
 30
0.0
  3
THERMALV
  1

  0
LINE
  5
65
330
DD000DEFA01C
100
AcDbEntity
  8
0
100
AcDbLine
 10
-0.2379
 20
0.45
 30
0.0
 11
0.2379
 21
0.45
 31
0.0
  0
LINE
  5
66
330
DD000DEFA01C
100
AcDbEntity
  8
0
100
AcDbLine
 10
0.45
 20
0.2379
 30
0.0
 11
0.45
 21
-0.2379
 31
0.0
  0
LINE
  5
67
330
DD000DEFA01C
100
AcDbEntity
  8
0
100
AcDbLine
 10
0.2379
 20
-0.45
 30
0.0
 11
-0.2379
 21
-0.45
 31
0.0
  0
LINE
  5
68
330
DD000DEFA01C
100
AcDbEntity
  8
0
100
AcDbLine
 10
-0.45
 20
-0.2379
 30
0.0
 11
-0.45
 21
0.2379
 31
0.0
  0
ENDBLK
  5
DD000DEFA1DD
330
DD000DEFA01C
100
AcDbEntity
  8
0
100
AcDbBlockEnd
  0
BLOCK
  5
DD000DEFA1DE
330
DD000DEFA01E
100
AcDbEntity
  8
0
100
AcDbBlockBegin
  2
LONGP100
 70
     0
 71
     0
 10
0.0
 20
0.0
 30
0.0
  3
LONGP100
  1

  0
LWPOLYLINE
  5
6C
330
DD000DEFA01E
100
AcDbEntity
  8
0
100
AcDbPolyline
 90
        4
 70
     1
 43
0.0
 10
-0.5
 20
-0.5
 10
0.5
 20
-0.5
 42
1.0
 10
0.5
 20
0.5
 10
-0.5
 20
0.5
 42
1.0
  0
ENDBLK
  5
DD000DEFA1DF
330
DD000DEFA01E
100
AcDbEntity
  8
0
100
AcDbBlockEnd
  0
BLOCK
  5
DD000DEFA1E0
330
DD000DEFA020
100
AcDbEntity
  8
0
100
AcDbBlockBegin
  2
OFFSETP100
 70
     0
 71
     0
 10
0.0
 20
0.0
 30
0.0
  3
OFFSETP100
  1

  0
LWPOLYLINE
  5
75
330
DD000DEFA020
100
AcDbEntity
  8
0
100
AcDbPolyline
 90
        4
 70
     1
 43
0.0
 10
0.0
 20
-0.5
 10
1.0
 20
-0.5
 42
1.0
 10
1.0
 20
0.5
 10
0.0
 20
0.5
 42
1.0
  0
ENDBLK
  5
DD000DEFA1E1
330
DD000DEFA020
100
AcDbEntity
  8
0
100
AcDbBlockEnd
  0
BLOCK
  5
DD000DEFA1E2
330
DD000DEFA022
100
AcDbEntity
  8
0
100
AcDbBlockBegin
  2
VDDIM_DEFAULT
 70
     0
 71
     0
 10
0.0
 20
0.0
 30
0.0
  3
VDDIM_DEFAULT
  1

  0
LWPOLYLINE
  5
91
330
DD000DEFA022
100
AcDbEntity
  8
0
  6
Continuous
 62
     0
100
AcDbPolyline
 90
        4
 70
     0
 43
0.0
 10
0.0
 20
0.0
 10
-1.0
 20
-0.1665
 10
-1.0
 20
0.1665
 10
0.0
 20
0.0
1001
VDEXTRAPARAM
1071
        1
1071
        0
1071
        0
1040
1.0
1000

1000

1040
0.0
1040
0.0
  0
HATCH
  5
DD000DEFA1F3
330
DD000DEFA022
100
AcDbEntity
  8
0
  6
Continuous
 62
     0
100
AcDbHatch
 10
0.0
 20
0.0
 30
0.0
210
0.0
220
0.0
230
1.0
  2
SOLID
 70
     1
 71
     0
 91
        1
 92
        2
 72
     0
 73
     1
 93
        3
 10
0.0
 20
0.0
 10
-1.0
 20
-0.1665
 10
-1.0
 20
0.1665
 97
        0
 75
     0
 76
     1
 98
        1
 10
0.0
 20
0.0
1001
VDEXTRAPARAM
1071
        1
1071
        0
1071
        0
1040
1.0
1000

1000

1040
0.0
1040
0.0
1001
VD_TEMPHATCH
1000
VD_TEMPHATCH
  0
HATCH
  5
123
330
DD000DEFA022
100
AcDbEntity
  8
0
  6
Continuous
 62
     0
100
AcDbHatch
 10
0.0
 20
0.0
 30
0.0
210
0.0
220
0.0
230
1.0
  2
SOLID
 70
     1
 71
     0
 91
        1
 92
        3
 72
     0
 73
     1
 93
        3
 10
0.0
 20
0.0
 10
-1.0
 20
-0.1665
 10
-1.0
 20
0.1665
 97
        0
 75
     0
 76
     1
 98
        1
 10
0.0
 20
0.0
1001
VDEXTRAPARAM
1071
       65
1071
        0
1071
        0
1040
1.0
1000
SOLID
1000

1040
0.0
1040
0.0
  0
ENDBLK
  5
DD000DEFA1E3
330
DD000DEFA022
100
AcDbEntity
  8
0
100
AcDbBlockEnd
  0
BLOCK
  5
DD000DEFA1E4
330
DD000DEFA024
100
AcDbEntity
  8
0
100
AcDbBlockBegin
  2
VDDIM_NONE
 70
     0
 71
     0
 10
0.0
 20
0.0
 30
0.0
  3
VDDIM_NONE
  1

  0
ENDBLK
  5
DD000DEFA1E5
330
DD000DEFA024
100
AcDbEntity
  8
0
100
AcDbBlockEnd
  0
BLOCK
  5
DD000DEFA1E6
330
DD000DEFA026
100
AcDbEntity
  8
0
100
AcDbBlockBegin
  2
VDRAWCLIP1487689685
 70
     0
 71
     0
 10
0.0
 20
0.0
 30
0.0
  3
VDRAWCLIP1487689685
  1

  0
LWPOLYLINE
  5
95
330
DD000DEFA026
100
AcDbEntity
  8
0
100
AcDbPolyline
 90
        4
 70
     1
 43
0.0
 10
2.000000000000231
 20
2.000000000000095
 10
122.3000000000002
 20
2.000000000000096
 10
122.3
 20
69.8000000000001
 10
2.0
 20
69.8000000000001
  0
LWPOLYLINE
  5
96
330
DD000DEFA026
100
AcDbEntity
  8
0
100
AcDbPolyline
 90
        4
 70
     1
 43
0.0
 10
8.355000000000199
 20
8.510000000000098
 10
115.9450000000002
 20
8.510000000000098
 10
115.945
 20
63.2900000000001
 10
8.355000000000008
 20
63.2900000000001
  0
CIRCLE
  5
97
330
DD000DEFA026
100
AcDbEntity
  8
0
100
AcDbCircle
 10
8.355000000000199
 20
8.510000000000098
 30
0.0
 40
2.25
  0
CIRCLE
  5
98
330
DD000DEFA026
100
AcDbEntity
  8
0
100
AcDbCircle
 10
8.355
 20
63.29000000000009
 30
0.0
 40
2.25
  0
CIRCLE
  5
99
330
DD000DEFA026
100
AcDbEntity
  8
0
100
AcDbCircle
 10
115.945
 20
63.29000000000009
 30
0.0
 40
2.25
  0
CIRCLE
  5
9A
330
DD000DEFA026
100
AcDbEntity
  8
0
100
AcDbCircle
 10
115.9450000000002
 20
8.510000000000094
 30
0.0
 40
2.25
  0
LINE
  5
9B
330
DD000DEFA026
100
AcDbEntity
  8
0
100
AcDbLine
 10
62.14999999999999
 20
63.29000000000009
 30
0.0
 11
62.15000000000022
 21
8.510000000000098
 31
0.0
  0
LINE
  5
9C
330
DD000DEFA026
100
AcDbEntity
  8
0
100
AcDbLine
 10
3.00000000000022
 20
0.0000000000001092
 30
0.0
 11
121.3000000000004
 21
0.000000000000095
 31
0.0
  0
LINE
  5
9D
330
DD000DEFA026
100
AcDbEntity
  8
0
100
AcDbLine
 10
124.3000000000011
 20
3.000000000000064
 30
0.0
 11
124.3
 21
68.80000000000015
 31
0.0
  0
LINE
  5
9E
330
DD000DEFA026
100
AcDbEntity
  8
0
100
AcDbLine
 10
121.3
 20
71.80000000000176
 30
0.0
 11
3.000000000000014
 21
71.80000000000011
 31
0.0
  0
LINE
  5
9F
330
DD000DEFA026
100
AcDbEntity
  8
0
100
AcDbLine
 10
0.0
 20
68.80000000000007
 30
0.0
 11
0.0000000000011617
 21
3.000000000000085
 31
0.0
  0
ARC
  5
A0
330
DD000DEFA026
100
AcDbEntity
  8
0
100
AcDbCircle
 10
3.00000000000002
 20
68.8000000000001
 30
0.0
 40
3.0
100
AcDbArc
 50
90.0000000000002
 51
180.000000000002
  0
ARC
  5
A1
330
DD000DEFA026
100
AcDbEntity
  8
0
100
AcDbCircle
 10
121.3000000000001
 20
68.80000000000013
 30
0.0
 40
3.0
100
AcDbArc
 50
0.0
 51
90.00000000000081
  0
ARC
  5
A2
330
DD000DEFA026
100
AcDbEntity
  8
0
100
AcDbCircle
 10
121.3000000000003
 20
3.0
 30
0.0
 40
3.0
100
AcDbArc
 50
270.0000000000017
 51
0.0
  0
ARC
  5
A3
330
DD000DEFA026
100
AcDbEntity
  8
0
100
AcDbCircle
 10
3.00000000000021
 20
3.00000000000014
 30
0.0
 40
3.0
100
AcDbArc
 50
180.0000000000028
 51
270.0000000000018
  0
ENDBLK
  5
DD000DEFA1E7
330
DD000DEFA026
100
AcDbEntity
  8
0
100
AcDbBlockEnd
  0
BLOCK
  5
DD000DEFA1E8
330
DD000DEFA031
100
AcDbEntity
  8
0
100
AcDbBlockBegin
  2
VDRAWCLIP1488888145
 70
     0
 71
     0
 10
0.0
 20
0.0
 30
0.0
  3
VDRAWCLIP1488888145
  1

  0
LINE
  5
DD000DEFA034
330
DD000DEFA031
100
AcDbEntity
  8
21
100
AcDbLine
 10
2.6242
 20
5.08
 30
0.0
 11
3.2592
 21
4.445
 31
0.0
  0
LINE
  5
DD000DEFA035
330
DD000DEFA031
100
AcDbEntity
  8
21
100
AcDbLine
 10
3.2592
 20
4.445
 30
0.0
 11
3.2592
 21
3.175000000000001
 31
0.0
  0
LINE
  5
DD000DEFA036
330
DD000DEFA031
100
AcDbEntity
  8
21
100
AcDbLine
 10
3.2592
 20
3.175000000000001
 30
0.0
 11
2.6242
 21
2.540000000000001
 31
0.0
  0
LINE
  5
DD000DEFA037
330
DD000DEFA031
100
AcDbEntity
  8
21
100
AcDbLine
 10
2.6242
 20
2.540000000000001
 30
0.0
 11
1.3542
 21
2.540000000000001
 31
0.0
  0
LINE
  5
DD000DEFA038
330
DD000DEFA031
100
AcDbEntity
  8
21
100
AcDbLine
 10
1.3542
 20
2.540000000000001
 30
0.0
 11
0.7192000000000001
 21
3.175000000000001
 31
0.0
  0
LINE
  5
DD000DEFA039
330
DD000DEFA031
100
AcDbEntity
  8
21
100
AcDbLine
 10
0.7192000000000001
 20
3.175000000000001
 30
0.0
 11
0.7192000000000001
 21
4.445
 31
0.0
  0
LINE
  5
DD000DEFA03A
330
DD000DEFA031
100
AcDbEntity
  8
21
100
AcDbLine
 10
0.7192000000000001
 20
4.445
 30
0.0
 11
1.3542
 21
5.08
 31
0.0
  0
LINE
  5
DD000DEFA03B
330
DD000DEFA031
100
AcDbEntity
  8
21
100
AcDbLine
 10
3.2592
 20
9.525
 30
0.0
 11
3.2592
 21
8.255000000000001
 31
0.0
  0
LINE
  5
DD000DEFA03C
330
DD000DEFA031
100
AcDbEntity
  8
21
100
AcDbLine
 10
3.2592
 20
8.255000000000001
 30
0.0
 11
2.6242
 21
7.619999999999999
 31
0.0
  0
LINE
  5
DD000DEFA03D
330
DD000DEFA031
100
AcDbEntity
  8
21
100
AcDbLine
 10
2.6242
 20
7.619999999999999
 30
0.0
 11
1.3542
 21
7.619999999999999
 31
0.0
  0
LINE
  5
DD000DEFA03E
330
DD000DEFA031
100
AcDbEntity
  8
21
100
AcDbLine
 10
1.3542
 20
7.619999999999999
 30
0.0
 11
0.7192000000000001
 21
8.255000000000001
 31
0.0
  0
LINE
  5
DD000DEFA03F
330
DD000DEFA031
100
AcDbEntity
  8
21
100
AcDbLine
 10
2.6242
 20
7.619999999999999
 30
0.0
 11
3.2592
 21
6.984999999999999
 31
0.0
  0
LINE
  5
DD000DEFA040
330
DD000DEFA031
100
AcDbEntity
  8
21
100
AcDbLine
 10
3.2592
 20
6.984999999999999
 30
0.0
 11
3.2592
 21
5.715
 31
0.0
  0
LINE
  5
DD000DEFA041
330
DD000DEFA031
100
AcDbEntity
  8
21
100
AcDbLine
 10
3.2592
 20
5.715
 30
0.0
 11
2.6242
 21
5.08
 31
0.0
  0
LINE
  5
DD000DEFA042
330
DD000DEFA031
100
AcDbEntity
  8
21
100
AcDbLine
 10
2.6242
 20
5.08
 30
0.0
 11
1.3542
 21
5.08
 31
0.0
  0
LINE
  5
DD000DEFA043
330
DD000DEFA031
100
AcDbEntity
  8
21
100
AcDbLine
 10
1.3542
 20
5.08
 30
0.0
 11
0.7192000000000001
 21
5.715
 31
0.0
  0
LINE
  5
DD000DEFA044
330
DD000DEFA031
100
AcDbEntity
  8
21
100
AcDbLine
 10
0.7192000000000001
 20
5.715
 30
0.0
 11
0.7192000000000001
 21
6.984999999999999
 31
0.0
  0
LINE
  5
DD000DEFA045
330
DD000DEFA031
100
AcDbEntity
  8
21
100
AcDbLine
 10
0.7192000000000001
 20
6.984999999999999
 30
0.0
 11
1.3542
 21
7.619999999999999
 31
0.0
  0
LINE
  5
DD000DEFA046
330
DD000DEFA031
100
AcDbEntity
  8
21
100
AcDbLine
 10
2.6242
 20
10.16
 30
0.0
 11
1.3542
 21
10.16
 31
0.0
  0
LINE
  5
DD000DEFA047
330
DD000DEFA031
100
AcDbEntity
  8
21
100
AcDbLine
 10
3.2592
 20
9.525
 30
0.0
 11
2.6242
 21
10.16
 31
0.0
  0
LINE
  5
DD000DEFA048
330
DD000DEFA031
100
AcDbEntity
  8
21
100
AcDbLine
 10
1.3542
 20
10.16
 30
0.0
 11
0.7192000000000001
 21
9.525
 31
0.0
  0
LINE
  5
DD000DEFA049
330
DD000DEFA031
100
AcDbEntity
  8
21
100
AcDbLine
 10
0.7192000000000001
 20
8.255000000000001
 30
0.0
 11
0.7192000000000001
 21
9.525
 31
0.0
  0
LINE
  5
DD000DEFA04A
330
DD000DEFA031
100
AcDbEntity
  8
21
100
AcDbLine
 10
3.2592
 20
1.904999999999999
 30
0.0
 11
3.2592
 21
0.6349999999999998
 31
0.0
  0
LINE
  5
DD000DEFA04B
330
DD000DEFA031
100
AcDbEntity
  8
21
100
AcDbLine
 10
3.2592
 20
0.6349999999999998
 30
0.0
 11
2.6242
 21
0.0
 31
0.0
  0
LINE
  5
DD000DEFA04C
330
DD000DEFA031
100
AcDbEntity
  8
21
100
AcDbLine
 10
2.6242
 20
0.0
 30
0.0
 11
1.3542
 21
0.0
 31
0.0
  0
LINE
  5
DD000DEFA04D
330
DD000DEFA031
100
AcDbEntity
  8
21
100
AcDbLine
 10
1.3542
 20
0.0
 30
0.0
 11
0.7192000000000001
 21
0.6349999999999998
 31
0.0
  0
LINE
  5
DD000DEFA04E
330
DD000DEFA031
100
AcDbEntity
  8
21
100
AcDbLine
 10
3.2592
 20
1.904999999999999
 30
0.0
 11
2.6242
 21
2.540000000000001
 31
0.0
  0
LINE
  5
DD000DEFA04F
330
DD000DEFA031
100
AcDbEntity
  8
21
100
AcDbLine
 10
1.3542
 20
2.540000000000001
 30
0.0
 11
0.7192000000000001
 21
1.904999999999999
 31
0.0
  0
LINE
  5
DD000DEFA050
330
DD000DEFA031
100
AcDbEntity
  8
21
100
AcDbLine
 10
0.7192000000000001
 20
0.6349999999999998
 30
0.0
 11
0.7192000000000001
 21
1.904999999999999
 31
0.0
  0
LINE
  5
DD000DEFA051
330
DD000DEFA031
100
AcDbEntity
  8
21
100
AcDbLine
 10
2.6242
 20
18.08
 30
0.0
 11
3.2592
 21
17.445
 31
0.0
  0
LINE
  5
DD000DEFA052
330
DD000DEFA031
100
AcDbEntity
  8
21
100
AcDbLine
 10
3.2592
 20
17.445
 30
0.0
 11
3.2592
 21
16.175
 31
0.0
  0
LINE
  5
DD000DEFA053
330
DD000DEFA031
100
AcDbEntity
  8
21
100
AcDbLine
 10
3.2592
 20
16.175
 30
0.0
 11
2.6242
 21
15.54
 31
0.0
  0
LINE
  5
DD000DEFA054
330
DD000DEFA031
100
AcDbEntity
  8
21
100
AcDbLine
 10
2.6242
 20
15.54
 30
0.0
 11
1.3542
 21
15.54
 31
0.0
  0
LINE
  5
DD000DEFA055
330
DD000DEFA031
100
AcDbEntity
  8
21
100
AcDbLine
 10
1.3542
 20
15.54
 30
0.0
 11
0.7192000000000001
 21
16.175
 31
0.0
  0
LINE
  5
DD000DEFA056
330
DD000DEFA031
100
AcDbEntity
  8
21
100
AcDbLine
 10
0.7192000000000001
 20
16.175
 30
0.0
 11
0.7192000000000001
 21
17.445
 31
0.0
  0
LINE
  5
DD000DEFA057
330
DD000DEFA031
100
AcDbEntity
  8
21
100
AcDbLine
 10
0.7192000000000001
 20
17.445
 30
0.0
 11
1.3542
 21
18.08
 31
0.0
  0
LINE
  5
DD000DEFA058
330
DD000DEFA031
100
AcDbEntity
  8
21
100
AcDbLine
 10
3.2592
 20
22.525
 30
0.0
 11
3.2592
 21
21.255
 31
0.0
  0
LINE
  5
DD000DEFA059
330
DD000DEFA031
100
AcDbEntity
  8
21
100
AcDbLine
 10
3.2592
 20
21.255
 30
0.0
 11
2.6242
 21
20.62
 31
0.0
  0
LINE
  5
DD000DEFA05A
330
DD000DEFA031
100
AcDbEntity
  8
21
100
AcDbLine
 10
2.6242
 20
20.62
 30
0.0
 11
1.3542
 21
20.62
 31
0.0
  0
LINE
  5
DD000DEFA05B
330
DD000DEFA031
100
AcDbEntity
  8
21
100
AcDbLine
 10
1.3542
 20
20.62
 30
0.0
 11
0.7192000000000001
 21
21.255
 31
0.0
  0
LINE
  5
DD000DEFA05C
330
DD000DEFA031
100
AcDbEntity
  8
21
100
AcDbLine
 10
2.6242
 20
20.62
 30
0.0
 11
3.2592
 21
19.985
 31
0.0
  0
LINE
  5
DD000DEFA05D
330
DD000DEFA031
100
AcDbEntity
  8
21
100
AcDbLine
 10
3.2592
 20
19.985
 30
0.0
 11
3.2592
 21
18.715
 31
0.0
  0
LINE
  5
DD000DEFA05E
330
DD000DEFA031
100
AcDbEntity
  8
21
100
AcDbLine
 10
3.2592
 20
18.715
 30
0.0
 11
2.6242
 21
18.08
 31
0.0
  0
LINE
  5
DD000DEFA05F
330
DD000DEFA031
100
AcDbEntity
  8
21
100
AcDbLine
 10
2.6242
 20
18.08
 30
0.0
 11
1.3542
 21
18.08
 31
0.0
  0
LINE
  5
DD000DEFA060
330
DD000DEFA031
100
AcDbEntity
  8
21
100
AcDbLine
 10
1.3542
 20
18.08
 30
0.0
 11
0.7192000000000001
 21
18.715
 31
0.0
  0
LINE
  5
DD000DEFA061
330
DD000DEFA031
100
AcDbEntity
  8
21
100
AcDbLine
 10
0.7192000000000001
 20
18.715
 30
0.0
 11
0.7192000000000001
 21
19.985
 31
0.0
  0
LINE
  5
DD000DEFA062
330
DD000DEFA031
100
AcDbEntity
  8
21
100
AcDbLine
 10
0.7192000000000001
 20
19.985
 30
0.0
 11
1.3542
 21
20.62
 31
0.0
  0
LINE
  5
DD000DEFA063
330
DD000DEFA031
100
AcDbEntity
  8
21
100
AcDbLine
 10
2.6242
 20
23.16
 30
0.0
 11
1.3542
 21
23.16
 31
0.0
  0
LINE
  5
DD000DEFA064
330
DD000DEFA031
100
AcDbEntity
  8
21
100
AcDbLine
 10
3.2592
 20
22.525
 30
0.0
 11
2.6242
 21
23.16
 31
0.0
  0
LINE
  5
DD000DEFA065
330
DD000DEFA031
100
AcDbEntity
  8
21
100
AcDbLine
 10
1.3542
 20
23.16
 30
0.0
 11
0.7192000000000001
 21
22.525
 31
0.0
  0
LINE
  5
DD000DEFA066
330
DD000DEFA031
100
AcDbEntity
  8
21
100
AcDbLine
 10
0.7192000000000001
 20
21.255
 30
0.0
 11
0.7192000000000001
 21
22.525
 31
0.0
  0
LINE
  5
DD000DEFA067
330
DD000DEFA031
100
AcDbEntity
  8
21
100
AcDbLine
 10
3.2592
 20
14.905
 30
0.0
 11
3.2592
 21
13.635
 31
0.0
  0
LINE
  5
DD000DEFA068
330
DD000DEFA031
100
AcDbEntity
  8
21
100
AcDbLine
 10
3.2592
 20
13.635
 30
0.0
 11
2.6242
 21
13.0
 31
0.0
  0
LINE
  5
DD000DEFA069
330
DD000DEFA031
100
AcDbEntity
  8
21
100
AcDbLine
 10
2.6242
 20
13.0
 30
0.0
 11
1.3542
 21
13.0
 31
0.0
  0
LINE
  5
DD000DEFA06A
330
DD000DEFA031
100
AcDbEntity
  8
21
100
AcDbLine
 10
1.3542
 20
13.0
 30
0.0
 11
0.7192000000000001
 21
13.635
 31
0.0
  0
LINE
  5
DD000DEFA06B
330
DD000DEFA031
100
AcDbEntity
  8
21
100
AcDbLine
 10
3.2592
 20
14.905
 30
0.0
 11
2.6242
 21
15.54
 31
0.0
  0
LINE
  5
DD000DEFA06C
330
DD000DEFA031
100
AcDbEntity
  8
21
100
AcDbLine
 10
1.3542
 20
15.54
 30
0.0
 11
0.7192000000000001
 21
14.905
 31
0.0
  0
LINE
  5
DD000DEFA06D
330
DD000DEFA031
100
AcDbEntity
  8
21
100
AcDbLine
 10
0.7192000000000001
 20
13.635
 30
0.0
 11
0.7192000000000001
 21
14.905
 31
0.0
  0
LINE
  5
DD000DEFA06E
330
DD000DEFA031
100
AcDbEntity
  8
21
100
AcDbLine
 10
77.0
 20
36.9855
 30
0.0
 11
77.7796
 21
36.9855
 31
0.0
  0
LINE
  5
DD000DEFA06F
330
DD000DEFA031
100
AcDbEntity
  8
21
100
AcDbLine
 10
77.38979999999999
 20
37.3753
 30
0.0
 11
77.38979999999999
 21
36.5957
 31
0.0
  0
LINE
  5
DD000DEFA070
330
DD000DEFA031
100
AcDbEntity
  8
21
100
AcDbLine
 10
0.0
 20
38.9855
 30
0.0
 11
0.7796000000000001
 21
38.9855
 31
0.0
  0
LINE
  5
DD000DEFA071
330
DD000DEFA031
100
AcDbEntity
  8
21
100
AcDbLine
 10
0.3898000000000002
 20
39.3753
 30
0.0
 11
0.3898000000000002
 21
38.5957
 31
0.0
  0
LINE
  5
DD000DEFA072
330
DD000DEFA031
100
AcDbEntity
  8
21
100
AcDbLine
 10
3.9116
 20
31.8904
 30
0.0
 11
3.9116
 21
30.2696
 31
0.0
  0
LINE
  5
DD000DEFA073
330
DD000DEFA031
100
AcDbEntity
  8
21
100
AcDbLine
 10
1.0668
 20
30.2696
 30
0.0
 11
1.0668
 21
31.8904
 31
0.0
  0
LINE
  5
DD000DEFA074
330
DD000DEFA031
100
AcDbEntity
  8
21
100
AcDbLine
 10
1.9668
 20
31.8904
 30
0.0
 11
3.011600000000001
 21
31.8904
 31
0.0
  0
LINE
  5
DD000DEFA075
330
DD000DEFA031
100
AcDbEntity
  8
21
100
AcDbLine
 10
2.0616
 20
30.2696
 30
0.0
 11
1.9668
 21
30.2696
 31
0.0
  0
LINE
  5
DD000DEFA076
330
DD000DEFA031
100
AcDbEntity
  8
21
100
AcDbLine
 10
3.011600000000001
 20
30.2696
 30
0.0
 11
2.9168
 21
30.2696
 31
0.0
  0
LINE
  5
DD000DEFA077
330
DD000DEFA031
100
AcDbEntity
  8
21
100
AcDbLine
 10
1.1616
 20
30.2696
 30
0.0
 11
1.0668
 21
30.2696
 31
0.0
  0
LINE
  5
DD000DEFA078
330
DD000DEFA031
100
AcDbEntity
  8
21
100
AcDbLine
 10
3.9116
 20
30.2696
 30
0.0
 11
3.816800000000001
 21
30.2696
 31
0.0
  0
LINE
  5
DD000DEFA079
330
DD000DEFA031
100
AcDbEntity
  8
21
100
AcDbLine
 10
3.816800000000001
 20
31.8904
 30
0.0
 11
3.9116
 21
31.8904
 31
0.0
  0
LINE
  5
DD000DEFA07A
330
DD000DEFA031
100
AcDbEntity
  8
21
100
AcDbLine
 10
1.0668
 20
31.8904
 30
0.0
 11
1.1616
 21
31.8904
 31
0.0
  0
LINE
  5
DD000DEFA07B
330
DD000DEFA031
100
AcDbEntity
  8
21
100
AcDbLine
 10
82.0842
 20
2.310000000000001
 30
0.0
 11
80.8142
 21
2.310000000000001
 31
0.0
  0
LINE
  5
DD000DEFA07C
330
DD000DEFA031
100
AcDbEntity
  8
21
100
AcDbLine
 10
80.8142
 20
2.310000000000001
 30
0.0
 11
80.17919999999999
 21
2.945
 31
0.0
  0
LINE
  5
DD000DEFA07D
330
DD000DEFA031
100
AcDbEntity
  8
21
100
AcDbLine
 10
80.17919999999999
 20
2.945
 30
0.0
 11
80.17919999999999
 21
4.215
 31
0.0
  0
LINE
  5
DD000DEFA07E
330
DD000DEFA031
100
AcDbEntity
  8
21
100
AcDbLine
 10
80.17919999999999
 20
4.215
 30
0.0
 11
80.8142
 21
4.85
 31
0.0
  0
LINE
  5
DD000DEFA07F
330
DD000DEFA031
100
AcDbEntity
  8
21
100
AcDbLine
 10
85.25919999999999
 20
2.945
 30
0.0
 11
84.6242
 21
2.310000000000001
 31
0.0
  0
LINE
  5
DD000DEFA080
330
DD000DEFA031
100
AcDbEntity
  8
21
100
AcDbLine
 10
84.6242
 20
2.310000000000001
 30
0.0
 11
83.35419999999999
 21
2.310000000000001
 31
0.0
  0
LINE
  5
DD000DEFA081
330
DD000DEFA031
100
AcDbEntity
  8
21
100
AcDbLine
 10
83.35419999999999
 20
2.310000000000001
 30
0.0
 11
82.7192
 21
2.945
 31
0.0
  0
LINE
  5
DD000DEFA082
330
DD000DEFA031
100
AcDbEntity
  8
21
100
AcDbLine
 10
82.7192
 20
2.945
 30
0.0
 11
82.7192
 21
4.215
 31
0.0
  0
LINE
  5
DD000DEFA083
330
DD000DEFA031
100
AcDbEntity
  8
21
100
AcDbLine
 10
82.7192
 20
4.215
 30
0.0
 11
83.35419999999999
 21
4.85
 31
0.0
  0
LINE
  5
DD000DEFA084
330
DD000DEFA031
100
AcDbEntity
  8
21
100
AcDbLine
 10
83.35419999999999
 20
4.85
 30
0.0
 11
84.6242
 21
4.85
 31
0.0
  0
LINE
  5
DD000DEFA085
330
DD000DEFA031
100
AcDbEntity
  8
21
100
AcDbLine
 10
84.6242
 20
4.85
 30
0.0
 11
85.25919999999999
 21
4.215
 31
0.0
  0
LINE
  5
DD000DEFA086
330
DD000DEFA031
100
AcDbEntity
  8
21
100
AcDbLine
 10
82.0842
 20
2.310000000000001
 30
0.0
 11
82.7192
 21
2.945
 31
0.0
  0
LINE
  5
DD000DEFA087
330
DD000DEFA031
100
AcDbEntity
  8
21
100
AcDbLine
 10
82.7192
 20
4.215
 30
0.0
 11
82.0842
 21
4.85
 31
0.0
  0
LINE
  5
DD000DEFA088
330
DD000DEFA031
100
AcDbEntity
  8
21
100
AcDbLine
 10
80.8142
 20
4.85
 30
0.0
 11
82.0842
 21
4.85
 31
0.0
  0
LINE
  5
DD000DEFA089
330
DD000DEFA031
100
AcDbEntity
  8
21
100
AcDbLine
 10
89.7042
 20
2.310000000000001
 30
0.0
 11
88.43419999999999
 21
2.310000000000001
 31
0.0
  0
LINE
  5
DD000DEFA08A
330
DD000DEFA031
100
AcDbEntity
  8
21
100
AcDbLine
 10
88.43419999999999
 20
2.310000000000001
 30
0.0
 11
87.7992
 21
2.945
 31
0.0
  0
LINE
  5
DD000DEFA08B
330
DD000DEFA031
100
AcDbEntity
  8
21
100
AcDbLine
 10
87.7992
 20
2.945
 30
0.0
 11
87.7992
 21
4.215
 31
0.0
  0
LINE
  5
DD000DEFA08C
330
DD000DEFA031
100
AcDbEntity
  8
21
100
AcDbLine
 10
87.7992
 20
4.215
 30
0.0
 11
88.43419999999999
 21
4.85
 31
0.0
  0
LINE
  5
DD000DEFA08D
330
DD000DEFA031
100
AcDbEntity
  8
21
100
AcDbLine
 10
87.7992
 20
2.945
 30
0.0
 11
87.16419999999999
 21
2.310000000000001
 31
0.0
  0
LINE
  5
DD000DEFA08E
330
DD000DEFA031
100
AcDbEntity
  8
21
100
AcDbLine
 10
87.16419999999999
 20
2.310000000000001
 30
0.0
 11
85.8942
 21
2.310000000000001
 31
0.0
  0
LINE
  5
DD000DEFA08F
330
DD000DEFA031
100
AcDbEntity
  8
21
100
AcDbLine
 10
85.8942
 20
2.310000000000001
 30
0.0
 11
85.25919999999999
 21
2.945
 31
0.0
  0
LINE
  5
DD000DEFA090
330
DD000DEFA031
100
AcDbEntity
  8
21
100
AcDbLine
 10
85.25919999999999
 20
2.945
 30
0.0
 11
85.25919999999999
 21
4.215
 31
0.0
  0
LINE
  5
DD000DEFA091
330
DD000DEFA031
100
AcDbEntity
  8
21
100
AcDbLine
 10
85.25919999999999
 20
4.215
 30
0.0
 11
85.8942
 21
4.85
 31
0.0
  0
LINE
  5
DD000DEFA092
330
DD000DEFA031
100
AcDbEntity
  8
21
100
AcDbLine
 10
85.8942
 20
4.85
 30
0.0
 11
87.16419999999999
 21
4.85
 31
0.0
  0
LINE
  5
DD000DEFA093
330
DD000DEFA031
100
AcDbEntity
  8
21
100
AcDbLine
 10
87.16419999999999
 20
4.85
 30
0.0
 11
87.7992
 21
4.215
 31
0.0
  0
LINE
  5
DD000DEFA094
330
DD000DEFA031
100
AcDbEntity
  8
21
100
AcDbLine
 10
90.33919999999999
 20
2.945
 30
0.0
 11
90.33919999999999
 21
4.215
 31
0.0
  0
LINE
  5
DD000DEFA095
330
DD000DEFA031
100
AcDbEntity
  8
21
100
AcDbLine
 10
89.7042
 20
2.310000000000001
 30
0.0
 11
90.33919999999999
 21
2.945
 31
0.0
  0
LINE
  5
DD000DEFA096
330
DD000DEFA031
100
AcDbEntity
  8
21
100
AcDbLine
 10
90.33919999999999
 20
4.215
 30
0.0
 11
89.7042
 21
4.85
 31
0.0
  0
LINE
  5
DD000DEFA097
330
DD000DEFA031
100
AcDbEntity
  8
21
100
AcDbLine
 10
88.43419999999999
 20
4.85
 30
0.0
 11
89.7042
 21
4.85
 31
0.0
  0
LINE
  5
DD000DEFA098
330
DD000DEFA031
100
AcDbEntity
  8
21
100
AcDbLine
 10
79.5442
 20
2.310000000000001
 30
0.0
 11
78.27419999999999
 21
2.310000000000001
 31
0.0
  0
LINE
  5
DD000DEFA099
330
DD000DEFA031
100
AcDbEntity
  8
21
100
AcDbLine
 10
78.27419999999999
 20
2.310000000000001
 30
0.0
 11
77.6392
 21
2.945
 31
0.0
  0
LINE
  5
DD000DEFA09A
330
DD000DEFA031
100
AcDbEntity
  8
21
100
AcDbLine
 10
77.6392
 20
2.945
 30
0.0
 11
77.6392
 21
4.215
 31
0.0
  0
LINE
  5
DD000DEFA09B
330
DD000DEFA031
100
AcDbEntity
  8
21
100
AcDbLine
 10
77.6392
 20
4.215
 30
0.0
 11
78.27419999999999
 21
4.85
 31
0.0
  0
LINE
  5
DD000DEFA09C
330
DD000DEFA031
100
AcDbEntity
  8
21
100
AcDbLine
 10
79.5442
 20
2.310000000000001
 30
0.0
 11
80.17919999999999
 21
2.945
 31
0.0
  0
LINE
  5
DD000DEFA09D
330
DD000DEFA031
100
AcDbEntity
  8
21
100
AcDbLine
 10
80.17919999999999
 20
4.215
 30
0.0
 11
79.5442
 21
4.85
 31
0.0
  0
LINE
  5
DD000DEFA09E
330
DD000DEFA031
100
AcDbEntity
  8
21
100
AcDbLine
 10
78.27419999999999
 20
4.85
 30
0.0
 11
79.5442
 21
4.85
 31
0.0
  0
LINE
  5
DD000DEFA09F
330
DD000DEFA031
100
AcDbEntity
  8
21
100
AcDbLine
 10
83.78919999999999
 20
21.48
 30
0.0
 11
96.1892
 21
21.48
 31
0.0
  0
LINE
  5
DD000DEFA0A0
330
DD000DEFA031
100
AcDbEntity
  8
21
100
AcDbLine
 10
96.1892
 20
21.48
 30
0.0
 11
96.1892
 21
34.68
 31
0.0
  0
LINE
  5
DD000DEFA0A1
330
DD000DEFA031
100
AcDbEntity
  8
21
100
AcDbLine
 10
96.1892
 20
34.68
 30
0.0
 11
83.78919999999999
 21
34.68
 31
0.0
  0
LINE
  5
DD000DEFA0A2
330
DD000DEFA031
100
AcDbEntity
  8
21
100
AcDbLine
 10
83.78919999999999
 20
34.68
 30
0.0
 11
83.78919999999999
 21
21.48
 31
0.0
  0
LINE
  5
DD000DEFA0A3
330
DD000DEFA031
100
AcDbEntity
  8
21
100
AcDbLine
 10
87.3892
 20
29.58
 30
0.0
 11
92.58919999999999
 21
29.58
 31
0.0
  0
CIRCLE
  5
DD000DEFA0A4
330
DD000DEFA031
100
AcDbEntity
  8
21
100
AcDbCircle
 10
89.9892
 20
28.08
 30
0.0
 40
3.0
  0
LINE
  5
DD000DEFA0A5
330
DD000DEFA031
100
AcDbEntity
  8
21
100
AcDbLine
 10
93.94919999999999
 20
1.84
 30
0.0
 11
93.94919999999999
 21
4.35
 31
0.0
  0
LINE
  5
DD000DEFA0A6
330
DD000DEFA031
100
AcDbEntity
  8
21
100
AcDbLine
 10
94.94919999999999
 20
5.619999999999999
 30
0.0
 11
98.0292
 21
5.619999999999999
 31
0.0
  0
LINE
  5
DD000DEFA0A7
330
DD000DEFA031
100
AcDbEntity
  8
21
100
AcDbLine
 10
99.0292
 20
4.32
 30
0.0
 11
99.0292
 21
1.84
 31
0.0
  0
LINE
  5
DD000DEFA0A8
330
DD000DEFA031
100
AcDbEntity
  8
21
100
AcDbLine
 10
98.0292
 20
0.5400000000000009
 30
0.0
 11
94.94919999999999
 21
0.5400000000000009
 31
0.0
  0
CIRCLE
  5
DD000DEFA0A9
330
DD000DEFA031
100
AcDbEntity
  8
21
100
AcDbCircle
 10
96.4892
 20
3.08
 30
0.0
 40
1.27
  0
LINE
  5
DD000DEFA0AA
330
DD000DEFA031
100
AcDbEntity
  8
21
100
AcDbLine
 10
101.8862
 20
21.064
 30
0.0
 11
99.09219999999999
 21
21.064
 31
0.0
  0
ARC
  5
DD000DEFA0AB
330
DD000DEFA031
100
AcDbEntity
  8
21
100
AcDbCircle
 10
101.8862
 20
22.842
 30
0.0
 40
0.254
100
AcDbArc
 50
0.0
 51
90.0
  0
ARC
  5
DD000DEFA0AC
330
DD000DEFA031
100
AcDbEntity
  8
21
100
AcDbCircle
 10
99.09219999999999
 20
22.842
 30
0.0
 40
0.254
100
AcDbArc
 50
90.0
 51
180.0
  0
ARC
  5
DD000DEFA0AD
330
DD000DEFA031
100
AcDbEntity
  8
21
100
AcDbCircle
 10
99.09219999999999
 20
21.318
 30
0.0
 40
0.254
100
AcDbArc
 50
180.0
 51
270.0000000000008
  0
ARC
  5
DD000DEFA0AE
330
DD000DEFA031
100
AcDbEntity
  8
21
100
AcDbCircle
 10
101.8862
 20
21.318
 30
0.0
 40
0.254
100
AcDbArc
 50
270.0000000000008
 51
0.0
  0
LINE
  5
DD000DEFA0AF
330
DD000DEFA031
100
AcDbEntity
  8
21
100
AcDbLine
 10
102.1402
 20
21.318
 30
0.0
 11
102.1402
 21
22.842
 31
0.0
  0
LINE
  5
DD000DEFA0B0
330
DD000DEFA031
100
AcDbEntity
  8
21
100
AcDbLine
 10
98.8382
 20
21.318
 30
0.0
 11
98.8382
 21
22.842
 31
0.0
  0
LINE
  5
DD000DEFA0B1
330
DD000DEFA031
100
AcDbEntity
  8
21
100
AcDbLine
 10
99.09219999999999
 20
23.096
 30
0.0
 11
101.8862
 21
23.096
 31
0.0
  0
LINE
  5
DD000DEFA0B2
330
DD000DEFA031
100
AcDbEntity
  8
21
100
AcDbLine
 10
101.8862
 20
16.564
 30
0.0
 11
99.09219999999999
 21
16.564
 31
0.0
  0
ARC
  5
DD000DEFA0B3
330
DD000DEFA031
100
AcDbEntity
  8
21
100
AcDbCircle
 10
101.8862
 20
18.342
 30
0.0
 40
0.254
100
AcDbArc
 50
0.0
 51
90.0
  0
ARC
  5
DD000DEFA0B4
330
DD000DEFA031
100
AcDbEntity
  8
21
100
AcDbCircle
 10
99.09219999999999
 20
18.342
 30
0.0
 40
0.254
100
AcDbArc
 50
90.0
 51
180.0
  0
ARC
  5
DD000DEFA0B5
330
DD000DEFA031
100
AcDbEntity
  8
21
100
AcDbCircle
 10
99.09219999999999
 20
16.818
 30
0.0
 40
0.254
100
AcDbArc
 50
180.0
 51
270.0000000000008
  0
ARC
  5
DD000DEFA0B6
330
DD000DEFA031
100
AcDbEntity
  8
21
100
AcDbCircle
 10
101.8862
 20
16.818
 30
0.0
 40
0.254
100
AcDbArc
 50
270.0000000000008
 51
0.0
  0
LINE
  5
DD000DEFA0B7
330
DD000DEFA031
100
AcDbEntity
  8
21
100
AcDbLine
 10
102.1402
 20
16.818
 30
0.0
 11
102.1402
 21
18.342
 31
0.0
  0
LINE
  5
DD000DEFA0B8
330
DD000DEFA031
100
AcDbEntity
  8
21
100
AcDbLine
 10
98.8382
 20
16.818
 30
0.0
 11
98.8382
 21
18.342
 31
0.0
  0
LINE
  5
DD000DEFA0B9
330
DD000DEFA031
100
AcDbEntity
  8
21
100
AcDbLine
 10
99.09219999999999
 20
18.596
 30
0.0
 11
101.8862
 21
18.596
 31
0.0
  0
ENDBLK
  5
DD000DEFA1E9
330
DD000DEFA031
100
AcDbEntity
  8
0
100
AcDbBlockEnd
  0
BLOCK
  5
DD000DEFA1EA
330
DD000DEFA0BB
100
AcDbEntity
  8
0
100
AcDbBlockBegin
  2
VDRAWCLIP1488888211
 70
     0
 71
     0
 10
0.0
 20
0.0
 30
0.0
  3
VDRAWCLIP1488888211
  1

  0
ENDBLK
  5
DD000DEFA1EB
330
DD000DEFA0BB
100
AcDbEntity
  8
0
100
AcDbBlockEnd
  0
BLOCK
  5
DD000DEFA1EC
330
DD000DEFA0BD
100
AcDbEntity
  8
0
100
AcDbBlockBegin
  2
VDRAWCLIP1488888301
 70
     0
 71
     0
 10
0.0
 20
0.0
 30
0.0
  3
VDRAWCLIP1488888301
  1

  0
LINE
  5
DD000DEFA0BF
330
DD000DEFA0BD
100
AcDbEntity
  8
20
100
AcDbLine
 10
105.5
 20
3.0
 30
0.0
 11
105.5
 21
51.0
 31
0.0
  0
ARC
  5
DD000DEFA0C0
330
DD000DEFA0BD
100
AcDbEntity
  8
20
100
AcDbCircle
 10
102.5
 20
51.0
 30
0.0
 40
3.0
100
AcDbArc
 50
0.0
 51
90.0
  0
LINE
  5
DD000DEFA0C1
330
DD000DEFA0BD
100
AcDbEntity
  8
20
100
AcDbLine
 10
102.5
 20
54.0
 30
0.0
 11
3.0
 21
54.0
 31
0.0
  0
ARC
  5
DD000DEFA0C2
330
DD000DEFA0BD
100
AcDbEntity
  8
20
100
AcDbCircle
 10
3.0
 20
51.0
 30
0.0
 40
3.0
100
AcDbArc
 50
90.0
 51
180.0
  0
LINE
  5
DD000DEFA0C3
330
DD000DEFA0BD
100
AcDbEntity
  8
20
100
AcDbLine
 10
0.0
 20
51.0
 30
0.0
 11
0.0
 21
3.0
 31
0.0
  0
ARC
  5
DD000DEFA0C4
330
DD000DEFA0BD
100
AcDbEntity
  8
20
100
AcDbCircle
 10
3.0
 20
3.0
 30
0.0
 40
3.0
100
AcDbArc
 50
180.0
 51
270.0
  0
LINE
  5
DD000DEFA0C5
330
DD000DEFA0BD
100
AcDbEntity
  8
20
100
AcDbLine
 10
3.0
 20
0.0
 30
0.0
 11
102.5
 21
0.0
 31
0.0
  0
ARC
  5
DD000DEFA0C6
330
DD000DEFA0BD
100
AcDbEntity
  8
20
100
AcDbCircle
 10
102.5
 20
3.0
 30
0.0
 40
3.0
100
AcDbArc
 50
270.0
 51
0.0
  0
CIRCLE
  5
DD000DEFA0C7
330
DD000DEFA0BD
100
AcDbEntity
  8
20
100
AcDbCircle
 10
3.0
 20
3.0
 30
0.0
 40
1.55
  0
CIRCLE
  5
DD000DEFA0C8
330
DD000DEFA0BD
100
AcDbEntity
  8
20
100
AcDbCircle
 10
103.0
 20
3.0
 30
0.0
 40
1.55
  0
CIRCLE
  5
DD000DEFA0C9
330
DD000DEFA0BD
100
AcDbEntity
  8
20
100
AcDbCircle
 10
103.0
 20
51.0
 30
0.0
 40
1.55
  0
CIRCLE
  5
DD000DEFA0CA
330
DD000DEFA0BD
100
AcDbEntity
  8
20
100
AcDbCircle
 10
3.0
 20
51.0
 30
0.0
 40
1.55
  0
LINE
  5
DD000DEFA0CB
330
DD000DEFA0BD
100
AcDbEntity
  8
21
100
AcDbLine
 10
3.635
 20
13.0
 30
0.0
 11
4.27
 21
12.365
 31
0.0
  0
LINE
  5
DD000DEFA0CC
330
DD000DEFA0BD
100
AcDbEntity
  8
21
100
AcDbLine
 10
4.27
 20
12.365
 30
0.0
 11
4.27
 21
11.095
 31
0.0
  0
LINE
  5
DD000DEFA0CD
330
DD000DEFA0BD
100
AcDbEntity
  8
21
100
AcDbLine
 10
4.27
 20
11.095
 30
0.0
 11
3.635
 21
10.46
 31
0.0
  0
LINE
  5
DD000DEFA0CE
330
DD000DEFA0BD
100
AcDbEntity
  8
21
100
AcDbLine
 10
3.635
 20
10.46
 30
0.0
 11
2.365
 21
10.46
 31
0.0
  0
LINE
  5
DD000DEFA0CF
330
DD000DEFA0BD
100
AcDbEntity
  8
21
100
AcDbLine
 10
2.365
 20
10.46
 30
0.0
 11
1.73
 21
11.095
 31
0.0
  0
LINE
  5
DD000DEFA0D0
330
DD000DEFA0BD
100
AcDbEntity
  8
21
100
AcDbLine
 10
1.73
 20
11.095
 30
0.0
 11
1.73
 21
12.365
 31
0.0
  0
LINE
  5
DD000DEFA0D1
330
DD000DEFA0BD
100
AcDbEntity
  8
21
100
AcDbLine
 10
1.73
 20
12.365
 30
0.0
 11
2.365
 21
13.0
 31
0.0
  0
LINE
  5
DD000DEFA0D2
330
DD000DEFA0BD
100
AcDbEntity
  8
21
100
AcDbLine
 10
4.27
 20
17.445
 30
0.0
 11
4.27
 21
16.175
 31
0.0
  0
LINE
  5
DD000DEFA0D3
330
DD000DEFA0BD
100
AcDbEntity
  8
21
100
AcDbLine
 10
4.27
 20
16.175
 30
0.0
 11
3.635
 21
15.54
 31
0.0
  0
LINE
  5
DD000DEFA0D4
330
DD000DEFA0BD
100
AcDbEntity
  8
21
100
AcDbLine
 10
3.635
 20
15.54
 30
0.0
 11
2.365
 21
15.54
 31
0.0
  0
LINE
  5
DD000DEFA0D5
330
DD000DEFA0BD
100
AcDbEntity
  8
21
100
AcDbLine
 10
2.365
 20
15.54
 30
0.0
 11
1.73
 21
16.175
 31
0.0
  0
LINE
  5
DD000DEFA0D6
330
DD000DEFA0BD
100
AcDbEntity
  8
21
100
AcDbLine
 10
3.635
 20
15.54
 30
0.0
 11
4.27
 21
14.905
 31
0.0
  0
LINE
  5
DD000DEFA0D7
330
DD000DEFA0BD
100
AcDbEntity
  8
21
100
AcDbLine
 10
4.27
 20
14.905
 30
0.0
 11
4.27
 21
13.635
 31
0.0
  0
LINE
  5
DD000DEFA0D8
330
DD000DEFA0BD
100
AcDbEntity
  8
21
100
AcDbLine
 10
4.27
 20
13.635
 30
0.0
 11
3.635
 21
13.0
 31
0.0
  0
LINE
  5
DD000DEFA0D9
330
DD000DEFA0BD
100
AcDbEntity
  8
21
100
AcDbLine
 10
3.635
 20
13.0
 30
0.0
 11
2.365
 21
13.0
 31
0.0
  0
LINE
  5
DD000DEFA0DA
330
DD000DEFA0BD
100
AcDbEntity
  8
21
100
AcDbLine
 10
2.365
 20
13.0
 30
0.0
 11
1.73
 21
13.635
 31
0.0
  0
LINE
  5
DD000DEFA0DB
330
DD000DEFA0BD
100
AcDbEntity
  8
21
100
AcDbLine
 10
1.73
 20
13.635
 30
0.0
 11
1.73
 21
14.905
 31
0.0
  0
LINE
  5
DD000DEFA0DC
330
DD000DEFA0BD
100
AcDbEntity
  8
21
100
AcDbLine
 10
1.73
 20
14.905
 30
0.0
 11
2.365
 21
15.54
 31
0.0
  0
LINE
  5
DD000DEFA0DD
330
DD000DEFA0BD
100
AcDbEntity
  8
21
100
AcDbLine
 10
3.635
 20
18.08
 30
0.0
 11
2.365
 21
18.08
 31
0.0
  0
LINE
  5
DD000DEFA0DE
330
DD000DEFA0BD
100
AcDbEntity
  8
21
100
AcDbLine
 10
4.27
 20
17.445
 30
0.0
 11
3.635
 21
18.08
 31
0.0
  0
LINE
  5
DD000DEFA0DF
330
DD000DEFA0BD
100
AcDbEntity
  8
21
100
AcDbLine
 10
2.365
 20
18.08
 30
0.0
 11
1.73
 21
17.445
 31
0.0
  0
LINE
  5
DD000DEFA0E0
330
DD000DEFA0BD
100
AcDbEntity
  8
21
100
AcDbLine
 10
1.73
 20
16.175
 30
0.0
 11
1.73
 21
17.445
 31
0.0
  0
LINE
  5
DD000DEFA0E1
330
DD000DEFA0BD
100
AcDbEntity
  8
21
100
AcDbLine
 10
4.27
 20
9.824999999999999
 30
0.0
 11
4.27
 21
8.555
 31
0.0
  0
LINE
  5
DD000DEFA0E2
330
DD000DEFA0BD
100
AcDbEntity
  8
21
100
AcDbLine
 10
4.27
 20
8.555
 30
0.0
 11
3.635
 21
7.92
 31
0.0
  0
LINE
  5
DD000DEFA0E3
330
DD000DEFA0BD
100
AcDbEntity
  8
21
100
AcDbLine
 10
3.635
 20
7.92
 30
0.0
 11
2.365
 21
7.92
 31
0.0
  0
LINE
  5
DD000DEFA0E4
330
DD000DEFA0BD
100
AcDbEntity
  8
21
100
AcDbLine
 10
2.365
 20
7.92
 30
0.0
 11
1.73
 21
8.555
 31
0.0
  0
LINE
  5
DD000DEFA0E5
330
DD000DEFA0BD
100
AcDbEntity
  8
21
100
AcDbLine
 10
4.27
 20
9.824999999999999
 30
0.0
 11
3.635
 21
10.46
 31
0.0
  0
LINE
  5
DD000DEFA0E6
330
DD000DEFA0BD
100
AcDbEntity
  8
21
100
AcDbLine
 10
2.365
 20
10.46
 30
0.0
 11
1.73
 21
9.824999999999999
 31
0.0
  0
LINE
  5
DD000DEFA0E7
330
DD000DEFA0BD
100
AcDbEntity
  8
21
100
AcDbLine
 10
1.73
 20
8.555
 30
0.0
 11
1.73
 21
9.824999999999999
 31
0.0
  0
LINE
  5
DD000DEFA0E8
330
DD000DEFA0BD
100
AcDbEntity
  8
21
100
AcDbLine
 10
3.635
 20
26.0
 30
0.0
 11
4.27
 21
25.365
 31
0.0
  0
LINE
  5
DD000DEFA0E9
330
DD000DEFA0BD
100
AcDbEntity
  8
21
100
AcDbLine
 10
4.27
 20
25.365
 30
0.0
 11
4.27
 21
24.095
 31
0.0
  0
LINE
  5
DD000DEFA0EA
330
DD000DEFA0BD
100
AcDbEntity
  8
21
100
AcDbLine
 10
4.27
 20
24.095
 30
0.0
 11
3.635
 21
23.46
 31
0.0
  0
LINE
  5
DD000DEFA0EB
330
DD000DEFA0BD
100
AcDbEntity
  8
21
100
AcDbLine
 10
3.635
 20
23.46
 30
0.0
 11
2.365
 21
23.46
 31
0.0
  0
LINE
  5
DD000DEFA0EC
330
DD000DEFA0BD
100
AcDbEntity
  8
21
100
AcDbLine
 10
2.365
 20
23.46
 30
0.0
 11
1.73
 21
24.095
 31
0.0
  0
LINE
  5
DD000DEFA0ED
330
DD000DEFA0BD
100
AcDbEntity
  8
21
100
AcDbLine
 10
1.73
 20
24.095
 30
0.0
 11
1.73
 21
25.365
 31
0.0
  0
LINE
  5
DD000DEFA0EE
330
DD000DEFA0BD
100
AcDbEntity
  8
21
100
AcDbLine
 10
1.73
 20
25.365
 30
0.0
 11
2.365
 21
26.0
 31
0.0
  0
LINE
  5
DD000DEFA0EF
330
DD000DEFA0BD
100
AcDbEntity
  8
21
100
AcDbLine
 10
4.27
 20
30.445
 30
0.0
 11
4.27
 21
29.175
 31
0.0
  0
LINE
  5
DD000DEFA0F0
330
DD000DEFA0BD
100
AcDbEntity
  8
21
100
AcDbLine
 10
4.27
 20
29.175
 30
0.0
 11
3.635
 21
28.54
 31
0.0
  0
LINE
  5
DD000DEFA0F1
330
DD000DEFA0BD
100
AcDbEntity
  8
21
100
AcDbLine
 10
3.635
 20
28.54
 30
0.0
 11
2.365
 21
28.54
 31
0.0
  0
LINE
  5
DD000DEFA0F2
330
DD000DEFA0BD
100
AcDbEntity
  8
21
100
AcDbLine
 10
2.365
 20
28.54
 30
0.0
 11
1.73
 21
29.175
 31
0.0
  0
LINE
  5
DD000DEFA0F3
330
DD000DEFA0BD
100
AcDbEntity
  8
21
100
AcDbLine
 10
3.635
 20
28.54
 30
0.0
 11
4.27
 21
27.905
 31
0.0
  0
LINE
  5
DD000DEFA0F4
330
DD000DEFA0BD
100
AcDbEntity
  8
21
100
AcDbLine
 10
4.27
 20
27.905
 30
0.0
 11
4.27
 21
26.635
 31
0.0
  0
LINE
  5
DD000DEFA0F5
330
DD000DEFA0BD
100
AcDbEntity
  8
21
100
AcDbLine
 10
4.27
 20
26.635
 30
0.0
 11
3.635
 21
26.0
 31
0.0
  0
LINE
  5
DD000DEFA0F6
330
DD000DEFA0BD
100
AcDbEntity
  8
21
100
AcDbLine
 10
3.635
 20
26.0
 30
0.0
 11
2.365
 21
26.0
 31
0.0
  0
LINE
  5
DD000DEFA0F7
330
DD000DEFA0BD
100
AcDbEntity
  8
21
100
AcDbLine
 10
2.365
 20
26.0
 30
0.0
 11
1.73
 21
26.635
 31
0.0
  0
LINE
  5
DD000DEFA0F8
330
DD000DEFA0BD
100
AcDbEntity
  8
21
100
AcDbLine
 10
1.73
 20
26.635
 30
0.0
 11
1.73
 21
27.905
 31
0.0
  0
LINE
  5
DD000DEFA0F9
330
DD000DEFA0BD
100
AcDbEntity
  8
21
100
AcDbLine
 10
1.73
 20
27.905
 30
0.0
 11
2.365
 21
28.54
 31
0.0
  0
LINE
  5
DD000DEFA0FA
330
DD000DEFA0BD
100
AcDbEntity
  8
21
100
AcDbLine
 10
3.635
 20
31.08
 30
0.0
 11
2.365
 21
31.08
 31
0.0
  0
LINE
  5
DD000DEFA0FB
330
DD000DEFA0BD
100
AcDbEntity
  8
21
100
AcDbLine
 10
4.27
 20
30.445
 30
0.0
 11
3.635
 21
31.08
 31
0.0
  0
LINE
  5
DD000DEFA0FC
330
DD000DEFA0BD
100
AcDbEntity
  8
21
100
AcDbLine
 10
2.365
 20
31.08
 30
0.0
 11
1.73
 21
30.445
 31
0.0
  0
LINE
  5
DD000DEFA0FD
330
DD000DEFA0BD
100
AcDbEntity
  8
21
100
AcDbLine
 10
1.73
 20
29.175
 30
0.0
 11
1.73
 21
30.445
 31
0.0
  0
LINE
  5
DD000DEFA0FE
330
DD000DEFA0BD
100
AcDbEntity
  8
21
100
AcDbLine
 10
4.27
 20
22.825
 30
0.0
 11
4.27
 21
21.555
 31
0.0
  0
LINE
  5
DD000DEFA0FF
330
DD000DEFA0BD
100
AcDbEntity
  8
21
100
AcDbLine
 10
4.27
 20
21.555
 30
0.0
 11
3.635
 21
20.92
 31
0.0
  0
LINE
  5
DD000DEFA100
330
DD000DEFA0BD
100
AcDbEntity
  8
21
100
AcDbLine
 10
3.635
 20
20.92
 30
0.0
 11
2.365
 21
20.92
 31
0.0
  0
LINE
  5
DD000DEFA101
330
DD000DEFA0BD
100
AcDbEntity
  8
21
100
AcDbLine
 10
2.365
 20
20.92
 30
0.0
 11
1.73
 21
21.555
 31
0.0
  0
LINE
  5
DD000DEFA102
330
DD000DEFA0BD
100
AcDbEntity
  8
21
100
AcDbLine
 10
4.27
 20
22.825
 30
0.0
 11
3.635
 21
23.46
 31
0.0
  0
LINE
  5
DD000DEFA103
330
DD000DEFA0BD
100
AcDbEntity
  8
21
100
AcDbLine
 10
2.365
 20
23.46
 30
0.0
 11
1.73
 21
22.825
 31
0.0
  0
LINE
  5
DD000DEFA104
330
DD000DEFA0BD
100
AcDbEntity
  8
21
100
AcDbLine
 10
1.73
 20
21.555
 30
0.0
 11
1.73
 21
22.825
 31
0.0
  0
LINE
  5
DD000DEFA105
330
DD000DEFA0BD
100
AcDbEntity
  8
21
100
AcDbLine
 10
78.0108
 20
44.9055
 30
0.0
 11
78.79040000000001
 21
44.9055
 31
0.0
  0
LINE
  5
DD000DEFA106
330
DD000DEFA0BD
100
AcDbEntity
  8
21
100
AcDbLine
 10
78.4006
 20
45.2953
 30
0.0
 11
78.4006
 21
44.5157
 31
0.0
  0
LINE
  5
DD000DEFA107
330
DD000DEFA0BD
100
AcDbEntity
  8
21
100
AcDbLine
 10
1.0108
 20
46.9055
 30
0.0
 11
1.7904
 21
46.9055
 31
0.0
  0
LINE
  5
DD000DEFA108
330
DD000DEFA0BD
100
AcDbEntity
  8
21
100
AcDbLine
 10
1.4006
 20
47.2953
 30
0.0
 11
1.4006
 21
46.5157
 31
0.0
  0
LINE
  5
DD000DEFA109
330
DD000DEFA0BD
100
AcDbEntity
  8
21
100
AcDbLine
 10
4.9224
 20
39.8104
 30
0.0
 11
4.9224
 21
38.1896
 31
0.0
  0
LINE
  5
DD000DEFA10A
330
DD000DEFA0BD
100
AcDbEntity
  8
21
100
AcDbLine
 10
2.0776
 20
38.1896
 30
0.0
 11
2.0776
 21
39.8104
 31
0.0
  0
LINE
  5
DD000DEFA10B
330
DD000DEFA0BD
100
AcDbEntity
  8
21
100
AcDbLine
 10
2.9776
 20
39.8104
 30
0.0
 11
4.0224
 21
39.8104
 31
0.0
  0
LINE
  5
DD000DEFA10C
330
DD000DEFA0BD
100
AcDbEntity
  8
21
100
AcDbLine
 10
3.0724
 20
38.1896
 30
0.0
 11
2.9776
 21
38.1896
 31
0.0
  0
LINE
  5
DD000DEFA10D
330
DD000DEFA0BD
100
AcDbEntity
  8
21
100
AcDbLine
 10
4.0224
 20
38.1896
 30
0.0
 11
3.9276
 21
38.1896
 31
0.0
  0
LINE
  5
DD000DEFA10E
330
DD000DEFA0BD
100
AcDbEntity
  8
21
100
AcDbLine
 10
2.1724
 20
38.1896
 30
0.0
 11
2.0776
 21
38.1896
 31
0.0
  0
LINE
  5
DD000DEFA10F
330
DD000DEFA0BD
100
AcDbEntity
  8
21
100
AcDbLine
 10
4.9224
 20
38.1896
 30
0.0
 11
4.8276
 21
38.1896
 31
0.0
  0
LINE
  5
DD000DEFA110
330
DD000DEFA0BD
100
AcDbEntity
  8
21
100
AcDbLine
 10
4.8276
 20
39.8104
 30
0.0
 11
4.9224
 21
39.8104
 31
0.0
  0
LINE
  5
DD000DEFA111
330
DD000DEFA0BD
100
AcDbEntity
  8
21
100
AcDbLine
 10
2.0776
 20
39.8104
 30
0.0
 11
2.1724
 21
39.8104
 31
0.0
  0
LINE
  5
DD000DEFA112
330
DD000DEFA0BD
100
AcDbEntity
  8
21
100
AcDbLine
 10
83.095
 20
10.23
 30
0.0
 11
81.825
 21
10.23
 31
0.0
  0
LINE
  5
DD000DEFA113
330
DD000DEFA0BD
100
AcDbEntity
  8
21
100
AcDbLine
 10
81.825
 20
10.23
 30
0.0
 11
81.19
 21
10.865
 31
0.0
  0
LINE
  5
DD000DEFA114
330
DD000DEFA0BD
100
AcDbEntity
  8
21
100
AcDbLine
 10
81.19
 20
10.865
 30
0.0
 11
81.19
 21
12.135
 31
0.0
  0
LINE
  5
DD000DEFA115
330
DD000DEFA0BD
100
AcDbEntity
  8
21
100
AcDbLine
 10
81.19
 20
12.135
 30
0.0
 11
81.825
 21
12.77
 31
0.0
  0
LINE
  5
DD000DEFA116
330
DD000DEFA0BD
100
AcDbEntity
  8
21
100
AcDbLine
 10
86.27
 20
10.865
 30
0.0
 11
85.63500000000001
 21
10.23
 31
0.0
  0
LINE
  5
DD000DEFA117
330
DD000DEFA0BD
100
AcDbEntity
  8
21
100
AcDbLine
 10
85.63500000000001
 20
10.23
 30
0.0
 11
84.365
 21
10.23
 31
0.0
  0
LINE
  5
DD000DEFA118
330
DD000DEFA0BD
100
AcDbEntity
  8
21
100
AcDbLine
 10
84.365
 20
10.23
 30
0.0
 11
83.73
 21
10.865
 31
0.0
  0
LINE
  5
DD000DEFA119
330
DD000DEFA0BD
100
AcDbEntity
  8
21
100
AcDbLine
 10
83.73
 20
10.865
 30
0.0
 11
83.73
 21
12.135
 31
0.0
  0
LINE
  5
DD000DEFA11A
330
DD000DEFA0BD
100
AcDbEntity
  8
21
100
AcDbLine
 10
83.73
 20
12.135
 30
0.0
 11
84.365
 21
12.77
 31
0.0
  0
LINE
  5
DD000DEFA11B
330
DD000DEFA0BD
100
AcDbEntity
  8
21
100
AcDbLine
 10
84.365
 20
12.77
 30
0.0
 11
85.63500000000001
 21
12.77
 31
0.0
  0
LINE
  5
DD000DEFA11C
330
DD000DEFA0BD
100
AcDbEntity
  8
21
100
AcDbLine
 10
85.63500000000001
 20
12.77
 30
0.0
 11
86.27
 21
12.135
 31
0.0
  0
LINE
  5
DD000DEFA11D
330
DD000DEFA0BD
100
AcDbEntity
  8
21
100
AcDbLine
 10
83.095
 20
10.23
 30
0.0
 11
83.73
 21
10.865
 31
0.0
  0
LINE
  5
DD000DEFA11E
330
DD000DEFA0BD
100
AcDbEntity
  8
21
100
AcDbLine
 10
83.73
 20
12.135
 30
0.0
 11
83.095
 21
12.77
 31
0.0
  0
LINE
  5
DD000DEFA11F
330
DD000DEFA0BD
100
AcDbEntity
  8
21
100
AcDbLine
 10
81.825
 20
12.77
 30
0.0
 11
83.095
 21
12.77
 31
0.0
  0
LINE
  5
DD000DEFA120
330
DD000DEFA0BD
100
AcDbEntity
  8
21
100
AcDbLine
 10
90.715
 20
10.23
 30
0.0
 11
89.44499999999999
 21
10.23
 31
0.0
  0
LINE
  5
DD000DEFA121
330
DD000DEFA0BD
100
AcDbEntity
  8
21
100
AcDbLine
 10
89.44499999999999
 20
10.23
 30
0.0
 11
88.81
 21
10.865
 31
0.0
  0
LINE
  5
DD000DEFA122
330
DD000DEFA0BD
100
AcDbEntity
  8
21
100
AcDbLine
 10
88.81
 20
10.865
 30
0.0
 11
88.81
 21
12.135
 31
0.0
  0
LINE
  5
DD000DEFA123
330
DD000DEFA0BD
100
AcDbEntity
  8
21
100
AcDbLine
 10
88.81
 20
12.135
 30
0.0
 11
89.44499999999999
 21
12.77
 31
0.0
  0
LINE
  5
DD000DEFA124
330
DD000DEFA0BD
100
AcDbEntity
  8
21
100
AcDbLine
 10
88.81
 20
10.865
 30
0.0
 11
88.175
 21
10.23
 31
0.0
  0
LINE
  5
DD000DEFA125
330
DD000DEFA0BD
100
AcDbEntity
  8
21
100
AcDbLine
 10
88.175
 20
10.23
 30
0.0
 11
86.905
 21
10.23
 31
0.0
  0
LINE
  5
DD000DEFA126
330
DD000DEFA0BD
100
AcDbEntity
  8
21
100
AcDbLine
 10
86.905
 20
10.23
 30
0.0
 11
86.27
 21
10.865
 31
0.0
  0
LINE
  5
DD000DEFA127
330
DD000DEFA0BD
100
AcDbEntity
  8
21
100
AcDbLine
 10
86.27
 20
10.865
 30
0.0
 11
86.27
 21
12.135
 31
0.0
  0
LINE
  5
DD000DEFA128
330
DD000DEFA0BD
100
AcDbEntity
  8
21
100
AcDbLine
 10
86.27
 20
12.135
 30
0.0
 11
86.905
 21
12.77
 31
0.0
  0
LINE
  5
DD000DEFA129
330
DD000DEFA0BD
100
AcDbEntity
  8
21
100
AcDbLine
 10
86.905
 20
12.77
 30
0.0
 11
88.175
 21
12.77
 31
0.0
  0
LINE
  5
DD000DEFA12A
330
DD000DEFA0BD
100
AcDbEntity
  8
21
100
AcDbLine
 10
88.175
 20
12.77
 30
0.0
 11
88.81
 21
12.135
 31
0.0
  0
LINE
  5
DD000DEFA12B
330
DD000DEFA0BD
100
AcDbEntity
  8
21
100
AcDbLine
 10
91.34999999999999
 20
10.865
 30
0.0
 11
91.34999999999999
 21
12.135
 31
0.0
  0
LINE
  5
DD000DEFA12C
330
DD000DEFA0BD
100
AcDbEntity
  8
21
100
AcDbLine
 10
90.715
 20
10.23
 30
0.0
 11
91.34999999999999
 21
10.865
 31
0.0
  0
LINE
  5
DD000DEFA12D
330
DD000DEFA0BD
100
AcDbEntity
  8
21
100
AcDbLine
 10
91.34999999999999
 20
12.135
 30
0.0
 11
90.715
 21
12.77
 31
0.0
  0
LINE
  5
DD000DEFA12E
330
DD000DEFA0BD
100
AcDbEntity
  8
21
100
AcDbLine
 10
89.44499999999999
 20
12.77
 30
0.0
 11
90.715
 21
12.77
 31
0.0
  0
LINE
  5
DD000DEFA12F
330
DD000DEFA0BD
100
AcDbEntity
  8
21
100
AcDbLine
 10
80.55500000000001
 20
10.23
 30
0.0
 11
79.285
 21
10.23
 31
0.0
  0
LINE
  5
DD000DEFA130
330
DD000DEFA0BD
100
AcDbEntity
  8
21
100
AcDbLine
 10
79.285
 20
10.23
 30
0.0
 11
78.65000000000001
 21
10.865
 31
0.0
  0
LINE
  5
DD000DEFA131
330
DD000DEFA0BD
100
AcDbEntity
  8
21
100
AcDbLine
 10
78.65000000000001
 20
10.865
 30
0.0
 11
78.65000000000001
 21
12.135
 31
0.0
  0
LINE
  5
DD000DEFA132
330
DD000DEFA0BD
100
AcDbEntity
  8
21
100
AcDbLine
 10
78.65000000000001
 20
12.135
 30
0.0
 11
79.285
 21
12.77
 31
0.0
  0
LINE
  5
DD000DEFA133
330
DD000DEFA0BD
100
AcDbEntity
  8
21
100
AcDbLine
 10
80.55500000000001
 20
10.23
 30
0.0
 11
81.19
 21
10.865
 31
0.0
  0
LINE
  5
DD000DEFA134
330
DD000DEFA0BD
100
AcDbEntity
  8
21
100
AcDbLine
 10
81.19
 20
12.135
 30
0.0
 11
80.55500000000001
 21
12.77
 31
0.0
  0
LINE
  5
DD000DEFA135
330
DD000DEFA0BD
100
AcDbEntity
  8
21
100
AcDbLine
 10
79.285
 20
12.77
 30
0.0
 11
80.55500000000001
 21
12.77
 31
0.0
  0
LINE
  5
DD000DEFA136
330
DD000DEFA0BD
100
AcDbEntity
  8
21
100
AcDbLine
 10
84.8
 20
29.4
 30
0.0
 11
97.2
 21
29.4
 31
0.0
  0
LINE
  5
DD000DEFA137
330
DD000DEFA0BD
100
AcDbEntity
  8
21
100
AcDbLine
 10
97.2
 20
29.4
 30
0.0
 11
97.2
 21
42.6
 31
0.0
  0
LINE
  5
DD000DEFA138
330
DD000DEFA0BD
100
AcDbEntity
  8
21
100
AcDbLine
 10
97.2
 20
42.6
 30
0.0
 11
84.8
 21
42.6
 31
0.0
  0
LINE
  5
DD000DEFA139
330
DD000DEFA0BD
100
AcDbEntity
  8
21
100
AcDbLine
 10
84.8
 20
42.6
 30
0.0
 11
84.8
 21
29.4
 31
0.0
  0
LINE
  5
DD000DEFA13A
330
DD000DEFA0BD
100
AcDbEntity
  8
21
100
AcDbLine
 10
88.40000000000001
 20
37.5
 30
0.0
 11
93.59999999999999
 21
37.5
 31
0.0
  0
CIRCLE
  5
DD000DEFA13B
330
DD000DEFA0BD
100
AcDbEntity
  8
21
100
AcDbCircle
 10
91.0
 20
36.0
 30
0.0
 40
3.0
  0
LINE
  5
DD000DEFA13C
330
DD000DEFA0BD
100
AcDbEntity
  8
21
100
AcDbLine
 10
94.95999999999999
 20
9.76
 30
0.0
 11
94.95999999999999
 21
12.27
 31
0.0
  0
LINE
  5
DD000DEFA13D
330
DD000DEFA0BD
100
AcDbEntity
  8
21
100
AcDbLine
 10
95.95999999999999
 20
13.54
 30
0.0
 11
99.04000000000001
 21
13.54
 31
0.0
  0
LINE
  5
DD000DEFA13E
330
DD000DEFA0BD
100
AcDbEntity
  8
21
100
AcDbLine
 10
100.04
 20
12.24
 30
0.0
 11
100.04
 21
9.76
 31
0.0
  0
LINE
  5
DD000DEFA13F
330
DD000DEFA0BD
100
AcDbEntity
  8
21
100
AcDbLine
 10
99.04000000000001
 20
8.460000000000001
 30
0.0
 11
95.95999999999999
 21
8.460000000000001
 31
0.0
  0
CIRCLE
  5
DD000DEFA140
330
DD000DEFA0BD
100
AcDbEntity
  8
21
100
AcDbCircle
 10
97.5
 20
11.0
 30
0.0
 40
1.27
  0
LINE
  5
DD000DEFA141
330
DD000DEFA0BD
100
AcDbEntity
  8
21
100
AcDbLine
 10
102.897
 20
28.984
 30
0.0
 11
100.103
 21
28.984
 31
0.0
  0
ARC
  5
DD000DEFA142
330
DD000DEFA0BD
100
AcDbEntity
  8
21
100
AcDbCircle
 10
102.897
 20
30.762
 30
0.0
 40
0.254
100
AcDbArc
 50
0.0
 51
90.0
  0
ARC
  5
DD000DEFA143
330
DD000DEFA0BD
100
AcDbEntity
  8
21
100
AcDbCircle
 10
100.103
 20
30.762
 30
0.0
 40
0.254
100
AcDbArc
 50
90.0
 51
180.0
  0
ARC
  5
DD000DEFA144
330
DD000DEFA0BD
100
AcDbEntity
  8
21
100
AcDbCircle
 10
100.103
 20
29.238
 30
0.0
 40
0.254
100
AcDbArc
 50
180.0
 51
270.0
  0
ARC
  5
DD000DEFA145
330
DD000DEFA0BD
100
AcDbEntity
  8
21
100
AcDbCircle
 10
102.897
 20
29.238
 30
0.0
 40
0.254
100
AcDbArc
 50
270.0
 51
0.0
  0
LINE
  5
DD000DEFA146
330
DD000DEFA0BD
100
AcDbEntity
  8
21
100
AcDbLine
 10
103.151
 20
29.238
 30
0.0
 11
103.151
 21
30.762
 31
0.0
  0
LINE
  5
DD000DEFA147
330
DD000DEFA0BD
100
AcDbEntity
  8
21
100
AcDbLine
 10
99.849
 20
29.238
 30
0.0
 11
99.849
 21
30.762
 31
0.0
  0
LINE
  5
DD000DEFA148
330
DD000DEFA0BD
100
AcDbEntity
  8
21
100
AcDbLine
 10
100.103
 20
31.016
 30
0.0
 11
102.897
 21
31.016
 31
0.0
  0
LINE
  5
DD000DEFA149
330
DD000DEFA0BD
100
AcDbEntity
  8
21
100
AcDbLine
 10
102.897
 20
24.484
 30
0.0
 11
100.103
 21
24.484
 31
0.0
  0
ARC
  5
DD000DEFA14A
330
DD000DEFA0BD
100
AcDbEntity
  8
21
100
AcDbCircle
 10
102.897
 20
26.262
 30
0.0
 40
0.254
100
AcDbArc
 50
0.0
 51
90.0
  0
ARC
  5
DD000DEFA14B
330
DD000DEFA0BD
100
AcDbEntity
  8
21
100
AcDbCircle
 10
100.103
 20
26.262
 30
0.0
 40
0.254
100
AcDbArc
 50
90.0
 51
180.0
  0
ARC
  5
DD000DEFA14C
330
DD000DEFA0BD
100
AcDbEntity
  8
21
100
AcDbCircle
 10
100.103
 20
24.738
 30
0.0
 40
0.254
100
AcDbArc
 50
180.0
 51
270.0
  0
ARC
  5
DD000DEFA14D
330
DD000DEFA0BD
100
AcDbEntity
  8
21
100
AcDbCircle
 10
102.897
 20
24.738
 30
0.0
 40
0.254
100
AcDbArc
 50
270.0
 51
0.0
  0
LINE
  5
DD000DEFA14E
330
DD000DEFA0BD
100
AcDbEntity
  8
21
100
AcDbLine
 10
103.151
 20
24.738
 30
0.0
 11
103.151
 21
26.262
 31
0.0
  0
LINE
  5
DD000DEFA14F
330
DD000DEFA0BD
100
AcDbEntity
  8
21
100
AcDbLine
 10
99.849
 20
24.738
 30
0.0
 11
99.849
 21
26.262
 31
0.0
  0
LINE
  5
DD000DEFA150
330
DD000DEFA0BD
100
AcDbEntity
  8
21
100
AcDbLine
 10
100.103
 20
26.516
 30
0.0
 11
102.897
 21
26.516
 31
0.0
  0
ENDBLK
  5
DD000DEFA1ED
330
DD000DEFA0BD
100
AcDbEntity
  8
0
100
AcDbBlockEnd
  0
BLOCK
  5
DD000DEFA1EE
330
DD000DEFA160
100
AcDbEntity
  8
0
100
AcDbBlockBegin
  2
VDRAWCLIP1488888980
 70
     0
 71
     0
 10
0.0
 20
0.0
 30
0.0
  3
VDRAWCLIP1488888980
  1

  0
LINE
  5
DD000DEFA163
330
DD000DEFA160
100
AcDbEntity
  8
20
100
AcDbLine
 10
105.5
 20
3.0
 30
0.0
 11
105.5
 21
51.0
 31
0.0
  0
ARC
  5
DD000DEFA164
330
DD000DEFA160
100
AcDbEntity
  8
20
100
AcDbCircle
 10
102.5
 20
51.0
 30
0.0
 40
3.0
100
AcDbArc
 50
0.0
 51
90.0
  0
LINE
  5
DD000DEFA165
330
DD000DEFA160
100
AcDbEntity
  8
20
100
AcDbLine
 10
102.5
 20
54.0
 30
0.0
 11
3.0
 21
54.0
 31
0.0
  0
ARC
  5
DD000DEFA166
330
DD000DEFA160
100
AcDbEntity
  8
20
100
AcDbCircle
 10
3.0
 20
51.0
 30
0.0
 40
3.0
100
AcDbArc
 50
90.0
 51
180.0
  0
LINE
  5
DD000DEFA167
330
DD000DEFA160
100
AcDbEntity
  8
20
100
AcDbLine
 10
0.0
 20
51.0
 30
0.0
 11
0.0
 21
3.0
 31
0.0
  0
ARC
  5
DD000DEFA168
330
DD000DEFA160
100
AcDbEntity
  8
20
100
AcDbCircle
 10
3.0
 20
3.0
 30
0.0
 40
3.0
100
AcDbArc
 50
180.0
 51
270.0
  0
LINE
  5
DD000DEFA169
330
DD000DEFA160
100
AcDbEntity
  8
20
100
AcDbLine
 10
3.0
 20
0.0
 30
0.0
 11
102.5
 21
0.0
 31
0.0
  0
ARC
  5
DD000DEFA16A
330
DD000DEFA160
100
AcDbEntity
  8
20
100
AcDbCircle
 10
102.5
 20
3.0
 30
0.0
 40
3.0
100
AcDbArc
 50
270.0
 51
0.0
  0
CIRCLE
  5
DD000DEFA16B
330
DD000DEFA160
100
AcDbEntity
  8
20
100
AcDbCircle
 10
3.0
 20
3.0
 30
0.0
 40
1.55
  0
CIRCLE
  5
DD000DEFA16C
330
DD000DEFA160
100
AcDbEntity
  8
20
100
AcDbCircle
 10
103.0
 20
3.0
 30
0.0
 40
1.55
  0
CIRCLE
  5
DD000DEFA16D
330
DD000DEFA160
100
AcDbEntity
  8
20
100
AcDbCircle
 10
103.0
 20
51.0
 30
0.0
 40
1.55
  0
CIRCLE
  5
DD000DEFA16E
330
DD000DEFA160
100
AcDbEntity
  8
20
100
AcDbCircle
 10
3.0
 20
51.0
 30
0.0
 40
1.55
  0
LINE
  5
DD000DEFA16F
330
DD000DEFA160
100
AcDbEntity
  8
52
100
AcDbLine
 10
76.5
 20
2.0
 30
0.0
 11
6.5
 21
2.0
 31
0.0
  0
LINE
  5
DD000DEFA170
330
DD000DEFA160
100
AcDbEntity
  8
52
100
AcDbLine
 10
6.5
 20
2.0
 30
0.0
 11
6.5
 21
52.0
 31
0.0
  0
LINE
  5
DD000DEFA171
330
DD000DEFA160
100
AcDbEntity
  8
52
100
AcDbLine
 10
6.5
 20
52.0
 30
0.0
 11
41.5
 21
52.0
 31
0.0
  0
LINE
  5
DD000DEFA172
330
DD000DEFA160
100
AcDbEntity
  8
52
100
AcDbLine
 10
41.5
 20
52.0
 30
0.0
 11
76.5
 21
52.0
 31
0.0
  0
LINE
  5
DD000DEFA173
330
DD000DEFA160
100
AcDbEntity
  8
52
100
AcDbLine
 10
76.5
 20
52.0
 30
0.0
 11
76.5
 21
2.0
 31
0.0
  0
LINE
  5
DD000DEFA174
330
DD000DEFA160
100
AcDbEntity
  8
52
100
AcDbLine
 10
73.47499999999999
 20
8.025
 30
0.0
 11
9.524999999999999
 21
8.025
 31
0.0
  0
LINE
  5
DD000DEFA175
330
DD000DEFA160
100
AcDbEntity
  8
52
100
AcDbLine
 10
9.525
 20
8.025
 30
0.0
 11
9.525
 21
39.975
 31
0.0
  0
LINE
  5
DD000DEFA176
330
DD000DEFA160
100
AcDbEntity
  8
52
100
AcDbLine
 10
9.525
 20
39.975
 30
0.0
 11
73.47499999999999
 21
39.975
 31
0.0
  0
LINE
  5
DD000DEFA177
330
DD000DEFA160
100
AcDbEntity
  8
52
100
AcDbLine
 10
73.47499999999999
 20
39.975
 30
0.0
 11
73.47499999999999
 21
8.024999999999999
 31
0.0
  0
ENDBLK
  5
DD000DEFA1EF
330
DD000DEFA160
100
AcDbEntity
  8
0
100
AcDbBlockEnd
  0
ENDSEC
  0
SECTION
  2
ENTITIES
  0
CIRCLE
  5
84
330
DD000DEFA19A
100
AcDbEntity
  8
0
100
AcDbCircle
 10
124.5032836872429
 20
-1.522121876543096
 30
0.0
 40
1.704999999999991
  0
CIRCLE
  5
85
330
DD000DEFA19A
100
AcDbEntity
  8
0
100
AcDbCircle
 10
224.5032836872429
 20
-1.522121876543096
 30
0.0
 40
1.704999999999991
  0
CIRCLE
  5
86
330
DD000DEFA19A
100
AcDbEntity
  8
0
100
AcDbCircle
 10
224.5032836872429
 20
46.4778781234569
 30
0.0
 40
1.704999999999991
  0
CIRCLE
  5
87
330
DD000DEFA19A
100
AcDbEntity
  8
0
100
AcDbCircle
 10
124.5032836872429
 20
46.4778781234569
 30
0.0
 40
1.704999999999991
  0
CIRCLE
  5
A8
330
DD000DEFA19A
100
AcDbEntity
  8
0
100
AcDbCircle
 10
120.458283687243
 20
-4.912121876543091
 30
0.0
 40
2.25
  0
CIRCLE
  5
A9
330
DD000DEFA19A
100
AcDbEntity
  8
0
100
AcDbCircle
 10
120.4582836872428
 20
49.8678781234569
 30
0.0
 40
2.25
  0
CIRCLE
  5
AA
330
DD000DEFA19A
100
AcDbEntity
  8
0
100
AcDbCircle
 10
228.0482836872428
 20
49.8678781234569
 30
0.0
 40
2.25
  0
CIRCLE
  5
AB
330
DD000DEFA19A
100
AcDbEntity
  8
0
100
AcDbCircle
 10
228.048283687243
 20
-4.912121876543095
 30
0.0
 40
2.25
  0
LINE
  5
AD
330
DD000DEFA19A
100
AcDbEntity
  8
0
100
AcDbLine
 10
115.103283687243
 20
-13.42212187654308
 30
0.0
 11
233.4032836872431
 21
-13.4221218765431
 31
0.0
  0
LINE
  5
AE
330
DD000DEFA19A
100
AcDbEntity
  8
0
100
AcDbLine
 10
236.4032836872439
 20
-10.42212187654313
 30
0.0
 11
236.4032836872428
 21
55.37787812345697
 31
0.0
  0
LINE
  5
AF
330
DD000DEFA19A
100
AcDbEntity
  8
0
100
AcDbLine
 10
233.4032836872428
 20
58.37787812345857
 30
0.0
 11
115.1032836872428
 21
58.37787812345692
 31
0.0
  0
LINE
  5
B0
330
DD000DEFA19A
100
AcDbEntity
  8
0
100
AcDbLine
 10
112.1032836872428
 20
55.37787812345688
 30
0.0
 11
112.1032836872439
 21
-10.42212187654312
 31
0.0
  0
ARC
  5
B1
330
DD000DEFA19A
100
AcDbEntity
  8
0
100
AcDbCircle
 10
115.1032836872428
 20
55.37787812345691
 30
0.0
 40
3.0
100
AcDbArc
 50
90.0
 51
180.0000000000028
  0
ARC
  5
B2
330
DD000DEFA19A
100
AcDbEntity
  8
0
100
AcDbCircle
 10
233.4032836872429
 20
55.37787812345694
 30
0.0
 40
3.0
100
AcDbArc
 50
0.0
 51
90.00000000000081
  0
ARC
  5
B3
330
DD000DEFA19A
100
AcDbEntity
  8
0
100
AcDbCircle
 10
233.4032836872431
 20
-10.42212187654319
 30
0.0
 40
3.0
100
AcDbArc
 50
270.0000000000024
 51
0.0
  0
ARC
  5
B4
330
DD000DEFA19A
100
AcDbEntity
  8
0
100
AcDbCircle
 10
115.103283687243
 20
-10.42212187654305
 30
0.0
 40
3.0
100
AcDbArc
 50
180.0000000000036
 51
270.0000000000024
  0
INSERT
  5
DD000DEFA0BC
330
DD000DEFA19A
100
AcDbEntity
  8
0
  6
ByBlock
100
AcDbBlockReference
  2
VDRAWCLIP1488888211
 10
227.2054608553593
 20
-13.56408035848192
 30
0.0
  0
CIRCLE
  5
DD000DEFA153
330
DD000DEFA19A
100
AcDbEntity
  8
0
  6
ByBlock
100
AcDbCircle
 10
212.5232586300862
 20
31.49972576863307
 30
0.0
 40
4.773354058978385
  0
LINE
  5
DD000DEFA157
330
DD000DEFA19A
100
AcDbEntity
  8
0
  6
ByBlock
100
AcDbLine
 10
200.4050301893016
 20
8.995342451240719
 30
0.0
 11
219.0647380562117
 21
8.998326670168135
 31
0.0
  0
LINE
  5
DD000DEFA158
330
DD000DEFA19A
100
AcDbEntity
  8
0
  6
ByBlock
100
AcDbLine
 10
200.4050301893016
 20
4.00701577503944
 30
0.0
 11
219.0749573536877
 21
4.010001628323684
 31
0.0
  0
ARC
  5
DD000DEFA15A
330
DD000DEFA19A
100
AcDbEntity
  8
0
  6
ByBlock
100
AcDbCircle
 10
219.0232586300862
 20
6.499725768633073
 30
0.0
 40
2.498945179059263
100
AcDbArc
 50
265.0877632641861
 51
90.96940982412305
  0
LINE
  5
DD000DEFA15B
330
DD000DEFA19A
100
AcDbEntity
  8
0
  6
ByBlock
100
AcDbLine
 10
200.4050301893016
 20
9.495342457634999
 30
0.0
 11
219.0646580919671
 21
9.498326663773854
 31
0.0
  0
LINE
  5
DD000DEFA15C
330
DD000DEFA19A
100
AcDbEntity
  8
0
  6
ByBlock
100
AcDbLine
 10
200.4050301893016
 20
3.50701576864516
 30
0.0
 11
219.0750373179324
 21
3.510001634717964
 31
0.0
  0
ARC
  5
DD000DEFA15D
330
DD000DEFA19A
100
AcDbEntity
  8
0
  6
ByBlock
100
AcDbCircle
 10
219.0232586300862
 20
6.499725768633073
 30
0.0
 40
2.998945179059263
100
AcDbArc
 50
265.0877632641861
 51
90.96940982412305
  0
VIEWPORT
  5
DD000DEFA1F4
330
DD000DEFA196
100
AcDbEntity
 67
     1
  8
0
 60
     1
100
AcDbViewport
 10
0.0
 20
0.0
 30
0.0
 40
10.0
 41
10.0
 69
     1
 12
0.0
 22
0.0
 13
0.0
 23
0.0
 14
1.0
 24
1.0
 15
0.0
 25
0.0
 16
0.0
 26
0.0
 36
1.0
 17
0.0
 27
0.0
 37
0.0
 42
0.0
 43
0.0
 44
0.0
 45
10.0
 50
0.0
 51
0.0000000000007958
 72
   100
 90
   163872
  1

281
     0
 71
     0
 74
     0
110
0.0
120
0.0
130
0.0
111
1.0
121
0.0
131
0.0
112
0.0
122
1.0
132
0.0
 79
     0
146
0.0
1001
VD_INVISIBLE_NOT_FOR_READ
1000
VD_INVISIBLE_NOT_FOR_READ
  0
VIEWPORT
  5
DD000DEFA1F5
330
DD000DEFA196
100
AcDbEntity
 67
     1
  8
0
 60
     1
100
AcDbViewport
 10
0.0
 20
0.0
 30
0.0
 40
10.0
 41
10.0
 69
     2
 12
0.0
 22
0.0
 13
0.0
 23
0.0
 14
1.0
 24
1.0
 15
0.0
 25
0.0
 16
0.0
 26
0.0
 36
1.0
 17
0.0
 27
0.0
 37
0.0
 42
0.0
 43
0.0
 44
0.0
 45
10.0
 50
0.0
 51
0.0000000000007958
 72
   100
 90
   163872
  1

281
     0
 71
     0
 74
     0
110
0.0
120
0.0
130
0.0
111
1.0
121
0.0
131
0.0
112
0.0
122
1.0
132
0.0
 79
     0
146
0.0
1001
VD_INVISIBLE_NOT_FOR_READ
1000
VD_INVISIBLE_NOT_FOR_READ
  0
ENDSEC
  0
SECTION
  2
OBJECTS
  0
DICTIONARY
  5
DD000DEFA187
330
0
100
AcDbDictionary
281
     1
  3
ACAD_GROUP
350
DD000DEFA188
  3
ACAD_LAYOUT
350
DD000DEFA195
  3
ACAD_MLINESTYLE
350
DD000DEFA192
  3
ACAD_PLOTSETTINGS
350
DD000DEFA194
  3
ACAD_PLOTSTYLENAME
350
DD000DEFA189
  3
VECTORDRAW_OBJECTS
350
DD000DEFA1AA
  0
DICTIONARY
  5
DD000DEFA188
102
{ACAD_REACTORS
330
DD000DEFA187
102
}
330
DD000DEFA187
100
AcDbDictionary
281
     1
  0
DICTIONARY
  5
DD000DEFA195
102
{ACAD_REACTORS
330
DD000DEFA187
102
}
330
DD000DEFA187
100
AcDbDictionary
281
     1
  3
Layout1
350
DD000DEFA199
  3
Layout2
350
DD000DEFA1A1
  3
Model
350
DD000DEFA19D
  0
DICTIONARY
  5
DD000DEFA192
102
{ACAD_REACTORS
330
DD000DEFA187
102
}
330
DD000DEFA187
100
AcDbDictionary
281
     1
  3
Standard
350
DD000DEFA193
  0
DICTIONARY
  5
DD000DEFA194
102
{ACAD_REACTORS
330
DD000DEFA187
102
}
330
DD000DEFA187
100
AcDbDictionary
281
     1
  0
ACDBDICTIONARYWDFLT
  5
DD000DEFA189
102
{ACAD_REACTORS
330
DD000DEFA187
102
}
330
DD000DEFA187
100
AcDbDictionary
281
     1
  3
Normal
350
DD000DEFA18A
100
AcDbDictionaryWithDefault
340
DD000DEFA18A
  0
DICTIONARY
  5
DD000DEFA1AA
102
{ACAD_REACTORS
330
DD000DEFA187
102
}
330
DD000DEFA187
100
AcDbDictionary
281
     1
  3
SERIALNO
350
DD000DEFA1AB
  0
LAYOUT
  5
DD000DEFA199
102
{ACAD_REACTORS
330
DD000DEFA195
102
}
330
DD000DEFA195
100
AcDbPlotSettings
  1
VectorDraw Printer Drawing
  2

  4

  6

 40
0.0
 41
0.0
 42
0.0
 43
0.0
 44
0.0
 45
0.0
 46
0.0
 47
0.0
 48
0.0
 49
0.0
140
0.0
141
0.0
142
1.0
143
1.0
 70
   688
 72
     0
 73
     0
 74
     5
  7

 75
    16
147
1.0
148
0.0
149
0.0
100
AcDbLayout
  1
Layout1
 70
     1
 71
     1
 10
0.0
 20
0.0
 11
12.0
 21
9.0
 12
0.0
 22
0.0
 32
0.0
 14
1.000000000000000E+20
 24
1.000000000000000E+20
 34
1.000000000000000E+20
 15
-1.000000000000000E+20
 25
-1.000000000000000E+20
 35
-1.000000000000000E+20
146
0.0
 13
0.0
 23
0.0
 33
0.0
 16
1.0
 26
0.0
 36
0.0
 17
0.0
 27
1.0
 37
0.0
 76
     0
330
DD000DEFA196
331
DD000DEFA1F4
  0
LAYOUT
  5
DD000DEFA1A1
102
{ACAD_REACTORS
330
DD000DEFA195
102
}
330
DD000DEFA195
100
AcDbPlotSettings
  1

  2

  4

  6

 40
0.0
 41
0.0
 42
0.0
 43
0.0
 44
0.0
 45
0.0
 46
0.0
 47
0.0
 48
0.0
 49
0.0
140
0.0
141
0.0
142
1.0
143
1.0
 70
   688
 72
     0
 73
     0
 74
     5
  7

 75
    16
147
1.0
148
0.0
149
0.0
100
AcDbLayout
  1
Layout2
 70
     1
 71
     2
 10
0.0
 20
0.0
 11
0.0
 21
0.0
 12
0.0
 22
0.0
 32
0.0
 14
0.0
 24
0.0
 34
0.0
 15
0.0
 25
0.0
 35
0.0
146
0.0
 13
0.0
 23
0.0
 33
0.0
 16
1.0
 26
0.0
 36
0.0
 17
0.0
 27
1.0
 37
0.0
 76
     0
330
DD000DEFA19E
  0
LAYOUT
  5
DD000DEFA19D
102
{ACAD_REACTORS
330
DD000DEFA195
102
}
330
DD000DEFA195
100
AcDbPlotSettings
  1
VectorDraw Printer Drawing
  2

  4

  6

 40
0.0
 41
0.0
 42
0.0
 43
0.0
 44
0.0
 45
0.0
 46
0.0
 47
0.0
 48
0.0
 49
0.0
140
0.0
141
0.0
142
1.0
143
1.0
 70
  1712
 72
     0
 73
     0
 74
     0
  7

 75
     0
147
1.0
148
0.0
149
0.0
100
AcDbLayout
  1
Model
 70
     1
 71
     0
 10
0.0
 20
0.0
 11
0.0
 21
0.0
 12
0.0
 22
0.0
 32
0.0
 14
112.1032836872428
 24
-13.42212187654319
 34
0.0
 15
236.4032836872439
 25
58.37787812345857
 35
0.0
146
0.0
 13
0.0
 23
0.0
 33
0.0
 16
1.0
 26
0.0
 36
0.0
 17
0.0
 27
1.0
 37
0.0
 76
     0
330
DD000DEFA19A
  0
MLINESTYLE
  5
DD000DEFA193
102
{ACAD_REACTORS
330
DD000DEFA192
102
}
330
DD000DEFA192
100
AcDbMlineStyle
  2
Standard
 70
     0
  3

 62
   256
 51
90.0
 52
90.0
 71
     2
 49
0.5
 62
   256
  6
BYLAYER
 49
-0.5
 62
   256
  6
BYLAYER
  0
ACDBPLACEHOLDER
  5
DD000DEFA18A
102
{ACAD_REACTORS
330
DD000DEFA189
102
}
330
DD000DEFA189
  0
XRECORD
  5
DD000DEFA1AB
102
{ACAD_REACTORS
330
DD000DEFA1AA
102
}
330
DD000DEFA1AA
100
AcDbXrecord
280
     1
1000
rInJVR9YY4Q8hfPWdUq5j5319
1070
     4
1070
     6
  0
ENDSEC
  0
EOF
